Incubus Dig

Discussion in 'Tablature and Notation [BG]' started by tx_tech, May 22, 2007.

  1. tx_tech

    tx_tech

    May 22, 2007
    Dallas, TX
    Can somebody take a stab at the Chorus for Dig by Incubus. There is one little run Ben is doing that I have not been able to catch. He is doing something like this on the chorus, he does three variations, the third has the little fill in it.

    beginning of chorus is something like this:

    ---------------------------------------
    2-1------------------------------------
    -----2-22-2---------------------------
    --------------2-22--0---00--0--------

    plays this again with a little variation:

    ---------------------------------------
    2-1------------------------------------
    -----2-22-2---------------------------
    --------------0-2-h-4--2--00-0------

    The third time he starts off with the same E D# B thing but does some sort of fill in place of the F# or E line towards the end.
     
  2. I've got 4 variations:

    ---------------------------------------
    2-1------------------------------------
    -----2-22-2---------------------------
    --------------2-22--0---00--0--------

    ---------------------------------------
    2-1------------------------------------
    -----2-22-2---------------------------
    --------------0-00--2---22--2--------

    -----------------------------------------------
    2-1-------------2-1---------------------------
    -----2-22-2---------2-4~---2----------------
    --------------2-----------------4-2-0~--------

    ---------------------------------------------------
    2-1----------------------------------------------
    -----2-22-2------------------------------------
    --------------0-2-h-4--2-22--(slide up///)------

    They're played in that order in the first chorus. The one you're talking about is probably the third variation above.
     
  3. collicsws6z28

    collicsws6z28

    Jan 29, 2007
    Can you post the verse and anything else needed to play this song?
     

Share This Page