Psst... Ready to join TalkBass and start posting, make new friends, sell your gear, and more?  Register your free account in 30 seconds.

Iron Butterfly

Discussion in 'Tablature and Notation [BG]' started by MasterChief, Jul 29, 2003.


  1. MasterChief

    MasterChief

    Feb 4, 2003
    Virginia
    I was wondering if any of you knew or could tab this one part in In-A-Gadda-Da-Vida by Iron Butterfly. Fast-Forward to a time between 13:00 and 13:09. It starts at 13:10.

    So there is that part. It keeps playing until: 14:32

    Then there it changes to another part I wanted to learn.

    :bassist:

    In Memory
    Eric Braunn

    Augst 11, 1950
    to
    July 25, 2003

    R.I.P
     
  2. mattsk42

    mattsk42 $100 off new Directv subsp.PM me BEFORE signing up Supporting Member

    I'd be curious about that, too. ALSO, can anyone tab ANY song other than that one? "My Mirage" would be great! Thanks.

    Matt
     
  3. retitled

    retitled

    Feb 13, 2004
    forest hills
    Mxtabs [http://www.mxtabs.net]
    Butterfly
    In-A-Gadda-Da-Vida
    By Iron Butterfly


    Verse: (Main Riff)
    G:------------------------|
    D:--0-0-3-2---0--7-6-5-3--|
    A:----------3-------------|
    E:------------------------|


    Pre-Chorus Riff:
    G:------------1-2-1-2-3-2-1-2-1h2p1----|
    D:--0-2-3-2-3-----------------------3--|
    A:-------------------------------------|
    E:-------------------------------------|


    Chorus: Part One
    G:----------------------------------|
    D:--5---3-5--5-4-3--2-----2--2-3-4--|
    A:----5---------------2-5-----------|
    E:----------------------------------|


    Chorus: Part Two
    G:----------------------------------|
    D:--7---5-7--7-6-5--4-----4--4-5-6--|
    A:----7---------------4-7-----------|
    E:----------------------------------|

    Post-Chorus Riff:
    G:---------------------------------|
    D:--9-----9-8h9p8------------------|
    A:----------------9--11--13--7--9--|
    E:-----7---------------------------|


    Bass Fill into Drum Solo:
    G:--6h7p6h7-----------------|
    D:----------6h7p6h7-0-------|
    A:--------------------------|
    E:--------------------------|


    Variation of Verse Riff:
    G:--------------------------|
    D:--0-0-3-2---0--0-0-3-2----|
    A:----------3------------3--|
    E:--------------------------|


    Order:
    Organ Intro
    Verse (x8)
    Pre-Chorus
    Chorus: Part 1 (x2)
    Chorus: Part 2 (x2)
    Post-Chorus
    Verse (x8)
    Pre-Chorus
    Chorus: Part 1 (x2)
    Chorus: Part 2 (x2)
    Post-Chorus
    Verse (x about 40)*
    Bass Fill into Drum Solo
    6+ minute drum solo, so you can take a little break here
    Bass Fill variation under guitar and keyboard effects
    Short drum solo
    Verse variation (x4) bass & drums only
    Verse (x8 or 10)
    Pre-Chorus
    Chorus: Part 1 (x2)
    Chorus: Part 2 (x2)
    Post-Chorus
    Verse (x4)
    Drum fill
    Verse Variation (x4)
    Organ fill (intro)
    Verse (First Half)

    found this on line :)
     
  4. mattsk42

    mattsk42 $100 off new Directv subsp.PM me BEFORE signing up Supporting Member

    Yeah that has some of it right, but it's missing some and it's not completely accurate. I really really want "My Mirage". If I could hear it well enough and had time, I'd do it myself. It's a good song. It's surprising there's not more IB bass tabs around. All of their songs have fun lines to play if you do them correctly.
     
  5. jani_bjorklund

    jani_bjorklund

    May 22, 2002
    Finland

    In A Gadda Da Vida.btab
    Iron Butterfly
    TablEdited by Poppamies
    Tuning : E A D G Time Signature: 4/4

    tempo 126
    |--7-----7-----7-----7-----------|--7-----7-----7-----7-----------|
    |------------------------5-7-----|------------------------5-7-----|
    |5-----5-----5-----5---------5---|5-----5-----5-----5---------5---|
    |--------------------------------|--------------------------------|


    |--7-----7-----7-----7-----------|--7-----7-----7-----7-----------|
    |------------------------5-7-----|------------------------5-7-----|
    |5-----5-----5-----5---------5---|5-----5-----5-----5---------5---|
    |--------------------------------|--------------------------------|


    Created with TablEdit http://www.tabledit.com/
     
  6. mattsk42

    mattsk42 $100 off new Directv subsp.PM me BEFORE signing up Supporting Member

    Thank you very much! That's really close I think!

    Now if someone could figure out My Mirage... Oh well, thanks!
     
  7. in that lil diddy there are only 4 notes. shat be hard to figure out
     
  8. d 00000057

    i think thats how that line goes from 13:10