Psst... Ready to join TalkBass and start posting, make new friends, sell your gear, and more?  Register your free account in 30 seconds.

james brown

Discussion in 'Tablature and Notation [BG]' started by bassmonkey144, Dec 13, 2004.


  1. hey guys, im lookin for a tab or sheet music to james browns "soulful christmas" or it could be called "funky christmas" i don't remember. and also, if anybody has a decent tab of "get up offa that thing" please feel free to share the wealth.

    thanks all.
     
  2. jani_bjorklund

    jani_bjorklund

    May 22, 2002
    Finland
    Here you have some of the song.
    There is also a standard notation/tab + midifile on my site
    http://www.geocities.com/jani_bjorklund/janis.html


    Soulful Christmas.btab
    James Brown
    TablEdited by Poppamies
    Tuning : E A D G Time Signature: 4/4


    |--------8-8---6---5-------------|--------8-8---6---6-------------|
    |----------------------0-6---8---|----------------------0-6---8---|
    |6---6---------------------------|6---6---------------------------|
    |--------------------------------|--------------------------------|


    |--------8-8---6---6-------------|--------8-8---6---6-------------|
    |----------------------0-6---8---|----------------------0-6---8---|
    |6---6---------------------------|6---6---------------------------|
    |--------------------------------|--------------------------------|


    |--------8-----6---5-------------|--------8-8---6---5-------------|
    |----------------------0-6---8---|----------------------0-6---8---|
    |6---6---------------------------|6---6---------------------------|
    |--------------------------------|--------------------------------|


    |--------8-----6---5-------------|--------8-----6---5-------------|
    |----------------------0-6---8---|----------------------0-8---7---|
    |6---6---------------------------|6---6---------------------------|
    |--------------------------------|--------------------------------|


    |--------------------------------|--------------------------------|
    |6---6---6-----4---3-------------|6-6-6---4---4-3---3-------------|
    |----------------------0-4---6---|----------------------0-4---5---|
    |--------------------------------|--------------------------------|


    |------------------6-8---8---8---|--------8-----6-----------------|
    |--------5-----8-----------------|------------------0-6---7---7---|
    |6---6---------------------------|6---6---------------------------|
    |--------------------------------|--------------------------------|


    |--------------------------------|--------------------------------|
    |8-------8-----6-6-------6---8---|6-------6-----0-6---7---8-------|
    |--------------------8-----------|----------------------------0---|
    |--------------------------------|--------------------------------|


    |--------8-----6-------6-8---8---|--------------------------------|
    |------------------8-------------|------ and so on...-------------|
    |6---6---------------------------|--------------------------------|
    |--------------------------------|--------------------------------|


    Created with TablEdit http://www.tabledit.com/


    Happy Hollidays to each and every bassist all over the world!