Psst... Ready to join TalkBass and start posting, make new friends, sell your gear, and more?  Register your free account in 30 seconds.

John Mayer tab

Discussion in 'Tablature and Notation [BG]' started by Franz Jr., May 4, 2004.


  1. Franz Jr.

    Franz Jr. Supporting Member

    Sep 17, 2002
    Raleigh, NC
    Anybody know where I can find "Back To You" by john mayer??

    thanks for your time
     
  2. jani_bjorklund

    jani_bjorklund

    May 22, 2002
    Finland
    This is the intro but it's pretty much the same... if you're having problems with the rest mail me...
    TablEdited by Poppamies
    Tuning : E A D G Time Signature: 4/4


    tempo 100
    |--------------------------------|--------------------------------|
    |--------------------------------|--------------------------------|
    |--------------------------------|--------------------------------|
    |5-5-5-5-5-----5---5-5-----5-----|5-5-5-5-5-----5---5-5-----4-----|


    |--------------------------------|--------------------------------|
    |--------------------------------|--------------------------------|
    |--------------------------------|--------------------------------|
    |2-2-2-2-2-----2---2-2-----2-----|2-2-2-2-2-----2---2-2-----2-----|


    |--------------------------------|--------------------------------|
    |--------------------------------|--------------------------------|
    |2-2-2-2-2-----2---2-2-----2-----|--------------------------------|
    |--------------------------------|0-0-0-0-0-----0---0-0-----0-----|


    |--------------------------------|--------------------------------|
    |--------------------------------|--------------------------------|
    |--------------------------------|--------------------------------|
    |2-2-2-2-2-----2---2-2-----2-----|2-2-2-2-2-----2---2-2-----2-----|

     
  3. Franz Jr.

    Franz Jr. Supporting Member

    Sep 17, 2002
    Raleigh, NC
    thanks for the help but do you haveany of the changes/breakdowns or fills. Thanks for your time

    brandon