Dismiss Notice

Psst... Ready to join TalkBass and start posting, make new friends, sell your gear, and more?  Register your free account in 30 seconds.

Looking for a tab for Velvet Revolver's Slither

Discussion in 'Tablature and Notation [BG]' started by Marley's Ghost, Jul 2, 2004.


  1. Marley's Ghost

    Marley's Ghost Gold Supporting Member

    Feb 9, 2002
    Tampa, FL
    Came up empty from the usual sources.
     
  2. Schwinn

    Schwinn

    Dec 4, 2002
    Sarasota, FL
    Well, even though I play 5 string, I play this tune drop D (like a guitar player!!!)

    Seriously, it is too awkward to play fretting the 3rd fret like that. Besides down-tuning is what Duff does...so in a sense it's the right was to play it.

    The intro...D (5th fret A string), C, B (each note is low and high octive part)

    The main riff....on the the E string, drop D is...0,3,4,0,6,7,0,3(on A string),0,6,7,0,5,0,3,4

    The interlude is D,C,B

    Good luck...
     
  3. Schwinn

    Schwinn

    Dec 4, 2002
    Sarasota, FL
    Hope this makes better sense than my last post


    Intro
    G:----7777-----7777----5555-----5555-----4444----4444-7.
    D:
    A:5555----5555-----3333----3333-----2222-----2222--5..
    D:

    main riff
    G:
    D:
    A:-----------------3------------------
    D:0-3-4-0-6-7-0---0-6-7-0-5-0-3-4

    chorus (if you want to call it that)
    G:
    D:
    A:------------3--3-3----2--2-2--------------
    D:0---0-0--------------------------0--0-0----

    guitar solo
    G:
    D:
    A:5555-5555-5555-5555-3333-3333-3333-3333-2222-2222-
    D:

    G:---------------------75-----------------------------------
    D:------------------------765-------------------------------
    A:2222-5555-5555-5-------85-5555-5555-3333-3333-3333-
    D:

    G:-----------------------------------------------------57
    D:------------------------------------------------567---
    A:3210-2222-2222-2222-2222-5555-5555-57---------
    D:

    The alternate variation in main riff
    G:
    D:
    A:---3-5--2-3-----------------------
    D:0------0----0-7-0-6-7-0-5-0-3-4-0
     
  4. Schwinn

    Schwinn

    Dec 4, 2002
    Sarasota, FL
    Ok there are a couple of parts that should be a repeated longer than I wrote it, but you get the idea.
     
  5. Marley's Ghost

    Marley's Ghost Gold Supporting Member

    Feb 9, 2002
    Tampa, FL