1. Please take 30 seconds to register your free account to remove most ads, post topics, make friends, earn reward points at our store, and more!  

Looking for help transcribing

Discussion in 'Tablature and Notation [BG]' started by Bass_Man_Al, Mar 30, 2015.


  1. Bass_Man_Al

    Bass_Man_Al

    Jun 19, 2007
    Can anyone help me transcribe the any trouble song trouble with love? I have most of the song down but struggling with the little 8 bar bass breakdown or whatever it is. Any tips on transcribing will also be greatful this is my first attempt



    between 1:50 and 2:06 in this video. i think i have most of it down i am struggling with the last 2 bars now.
     
    Last edited: Apr 6, 2015
  2. PlayTheBass

    PlayTheBass aka Mac Daddy Supporting Member

    Dec 7, 2004
    Carmichael, CA
    Post a link and at what time in the tune you're talking about... that'll help us help you. :)
     
  3. Bass_Man_Al

    Bass_Man_Al

    Jun 19, 2007
    Hey thanks,

    i have edited the post. to include the song and where i am having trouble
     
  4. PlayTheBass

    PlayTheBass aka Mac Daddy Supporting Member

    Dec 7, 2004
    Carmichael, CA
    OK, just getting the first part of the bridge I was playing this:

    G|-----------------|-----------------|-----------------|-----------------|
    D|---------2-------|---------4-------|2----------------|-----------------|
    A|-------4-----4---|5------5-----5---|------5-4---2----|1-----2-4--------|
    E|2----------------|-----------------|-----------------|------------2----|


    Then those last two bars sound like this:

    G|----------------|--------------------|
    D|7-7-7-7-7-7-7-7-|9---7---9-7---------|
    A|----------------|------------9\------|
    E|----------------|--------------------|
     

Share This Page

  1. This site uses cookies to help personalise content, tailor your experience and to keep you logged in if you register.
    By continuing to use this site, you are consenting to our use of cookies.