Dismiss Notice

Psst... Ready to join TalkBass and start posting, make new friends, sell your gear, and more?  Register your free account in 30 seconds.

looking for madonna lucky star

Discussion in 'Tablature and Notation [BG]' started by meshak, Dec 5, 2004.


  1. meshak

    meshak

    Dec 5, 2004
    i'm thinking about covering this song

    has anyone tab'd the bass line for this song out yet?

    i figured out some of it but i want to play it perfect cause its a pritty sweet bass line hehe
     
  2. Finger Blister

    Finger Blister

    Jul 8, 2003
    Lucky Star - Madonna



    |---------|----------------|----------------------|
    |---------|-2--------------|-------------------5--|
    |---------|-----3--5-5-5---|----5-5-5--5---5-7----|
    |---------|----------------|----------------------|


    |-------------------|------------------------|---------------------|
    |-------------------|------------------------|---------------------|
    |-7-----------------|----------10--9--0------|---------------------|
    |-----8--10-10-10---|----10-10----------8-10-|-12---8--10-10-10----|


    |----------------------------|--------------------|--------------------------|
    |----------------------------|--------------------|--------------------------|
    |-------------------------10-|--------------------|----------10--9--0--------|
    |----10-10-10--10---10-12----|-12---8--10-10-10---|----10-10----------8-10---|


    |--------------------|----------------------------|--------------------|
    |--------------------|----------------------------|--------------------|
    |--------------------|-------------------------10-|--------------------|
    |-12---8--10-10-10---|----10-10-10--10---10-12----|-12---8--10-10-10---|


    |------------------------|--------------------|------------------------------|
    |------------------------|--------------------|------------------------------|
    |----------10--9--0------|--------------------|-------------------------10---|
    |----10-10----------8-10-|-12---8--10-10-10---|----10-10-10--10---10-12------|


    |--------------------|------------------------|---------------------|
    |--------------------|------------------------|---------------------|
    |--------------------|----------10--9--0------|---------------------|
    |-12---8--10-10-10---|----10-10----------8-10-|-12---8--10-10-10----|


    |----------------------------|--------------------|--------------------------|
    |----------------------------|--------------------|--------------------------|
    |-------------------------10-|--------------------|----------10--9--0--------|
    |----10-10-10--10---10-12----|-12---8--10-10-10---|----10-10----------8-10---|


    |--------------------|----------------------------|--------------------|
    |--------------------|----------------------------|--------------------|
    |--------------------|-------------------------10-|--------------------|
    |-12---8--10-10-10---|----10-10-10--10---10-12----|-12---8--10-10-10---|


    |------------------------|--------------------|------------------------------|
    |------------------------|--------------------|------------------------------|
    |----------10--9--0------|--------------------|-------------------------10---|
    |----10-10----------8-10-|-12---8--10-10-10---|----10-10-10--10---10-12------|


    |--------------------|------------------------|---------------------|
    |--------------------|------------------------|---------------------|
    |--------------------|----------10--9--0------|---------------------|
    |-12---8--10-10-10---|----10-10----------8-10-|-12---8--10-10-10----|


    |----------------------------|--------------------|--------------------------|
    |----------------------------|--------------------|--------------------------|
    |-------------------------10-|--------------------|----------10--9--0--------|
    |----10-10-10--10---10-12----|-12---8--10-10-10---|----10-10----------8-10---|


    |--------------------|----------------------------|--------------------|
    |--------------------|----------------------------|--------------------|
    |--------------------|-------------------------10-|--------------------|
    |-12---8--10-10-10---|----10-10-10--10---10-12----|-12---8--10-10-10---|


    |------------------------|----------------|----------------|
    |------------------------|----------------|----------------|
    |----------10--9--0------|-0--0-----------|----------------|
    |----10-10----------8-10-|------------3-4-|-5--5-------3-4-|


    |---------------|---------------------|------------------|
    |---------------|---------------------|------------------|
    |---------------|-0--0--0----0--------|------------------|
    |-3--3--------3-|----------3------3-4-|-5--5-------3-4---|


    |----------------|---------------|------------------|
    |----------------|---------------|------------------|
    |----------------|---------------|-0--0--0----0-----|
    |-5--5-------5-7-|-3--3--------3-|----------3-------|


    |----------------|----------------|---------------|
    |----------------|----------------|---------------|
    |-0--0-----------|----------------|---------------|
    |------------3-4-|-5--5-------3-4-|-3--3--------3-|


    |---------------------|----------------|------------------|
    |---------------------|----------------|------------------|
    |-0--0--0----0--------|----------------|------------------|
    |----------3------3-4-|-5--5-------3-4-|-5--5-------5-7---|


    |---------------|------------------|----------------|
    |---------------|------------------|-2--------------|
    |---------------|-0--0--0----0-----|-----3--5-5-5---|
    |-3--3--------3-|----------3-------|----------------|


    |---------------------|-------------------|
    |-------------------5-|-------------------|
    |----5-5-5--5---5-7---|-7-----------------|
    |---------------------|-----8--10-10-10---|


    |-------------------------------------|
    |-------------------------------------|
    |------------------------10-----10-12-|
    |--10-10-10--10-10-10-12-----12-------|


    |--------------------|----------------------------|--------------------|
    |--------------------|----------------------------|--------------------|
    |--------------------|-------------------------10-|--------------------|
    |-12---8--10-10-10---|----10-10-10--10---10-12----|-12---8--10-10-10---|


    |-------------------------------------|
    |-------------------------------------|
    |------------------------10-----10-12-|
    |--10-10-10--10-10-10-12-----12-------|


    |--------------------|----------------------------|
    |--------------------|----------------------------|
    |--------------------|-------------------------10-|
    |-12---8--10-10-10---|----10-10-10--10---10-12----|


    |--------------------|------------------------|---------------------|
    |--------------------|------------------------|---------------------|
    |--------------------|----------10--9--0------|---------------------|
    |-12---8--10-10-10---|----10-10----------8-10-|-12---8--10-10-10----|


    |----------------------------|--------------------|--------------------------|
    |----------------------------|--------------------|--------------------------|
    |-------------------------10-|--------------------|----------10--9--0--------|
    |----10-10-10--10---10-12----|-12---8--10-10-10---|----10-10----------8-10---|


    |--------------------|----------------------------|--------------------|
    |--------------------|----------------------------|--------------------|
    |--------------------|-------------------------10-|--------------------|
    |-12---8--10-10-10---|----10-10-10--10---10-12----|-12---8--10-10-10---|


    |------------------------|--------------------|------------------------------|
    |------------------------|--------------------|------------------------------|
    |----------10--9--0------|--------------------|-------------------------10---|
    |----10-10----------8-10-|-12---8--10-10-10---|----10-10-10--10---10-12------|


    |--------------------|------------------------|-----------*|
    |--------------------|------------------------|-----------*|
    |--------------------|----------10--9--0------|-----------*|
    |-12---8--10-10-10---|----10-10----------8-10-|-12--------*|

     
  3. meshak

    meshak

    Dec 5, 2004
    sweet thanks a bunch :) :)