Dismiss Notice

Psst... Ready to join TalkBass and start posting, make new friends, sell your gear, and more?  Register your free account in 30 seconds.

Maggie May

Discussion in 'Tablature and Notation [BG]' started by Max, Jul 18, 2005.


  1. Max

    Max Supporting Member

    Feb 14, 2000
    Bakersfield, CA
    Anyone? Anyone?
     
  2. bonscottvocals

    bonscottvocals

    Feb 10, 2005
    Upstate NY
    oops, wrong section of the board. Sorry! Well, I bumped ya. :)
     
  3. Max

    Max Supporting Member

    Feb 14, 2000
    Bakersfield, CA
    Thanks for nothing! :D Actually, I am just breaking it down on my own at this point which is a good thing to do. He's just walking up the major scales, but man, what a great example of how to do it creatively.
     
  4. dlloyd

    dlloyd zzzzzzzzzzzzzzz

    Apr 21, 2004
    Scotland
    If we're talking about Rod Stewart's Maggie May, alcohol had a part to play.
     
  5. Max

    Max Supporting Member

    Feb 14, 2000
    Bakersfield, CA
    Yeah. Rod Stewart. Well, ok on the alcohol. I think it's brilliant.
     
  6. dlloyd

    dlloyd zzzzzzzzzzzzzzz

    Apr 21, 2004
    Scotland
    I'm listening to it now.

    I'll tab something out in the next few days if I can find the time.
     
  7. dlloyd

    dlloyd zzzzzzzzzzzzzzz

    Apr 21, 2004
    Scotland
    Here's the intro

    Code:
    ----------------------------------------------
    -------4--2----2--5-----5-4-2-----------------
    --5---------------------------5---------------
    ----------------------------------------------
    
    
    -----------11--9---9--12---12-11-9-------------
    -----12----------------------------12----------
    -/12-------------------------------------5--5--
    -----------------------------------------------
    The next bit is kind of hard to make out, but it's something like this...

    Code:
    -----------------------------------------------
    ---------7----------5-----5-5------------------
    -------7---7------------5----------------------
    --5--------------------------------------------
    
    
    
    -----------------------------------------------
    ---------------------7--9--7-------------------
    -5-----5--5----5-/9----------------------------
    -----------------------------------------------