1. Please take 30 seconds to register your free account to remove most ads, post topics, make friends, earn reward points at our store, and more!  

Mars Volta - Day of the Baphomets

Discussion in 'Tablature and Notation [BG]' started by the_dasonator, Nov 30, 2006.


  1. the_dasonator

    the_dasonator

    Oct 19, 2006
    Toronto
    I will be your slave for a day if any of you can tab this out for me.

    Please. I am on my knees begging.
     
  2. all 11:56 of it?!
     
  3. the_dasonator

    the_dasonator

    Oct 19, 2006
    Toronto
    In a perfect world, yes.

    Ideally the intro and the main riff.

    (I was about to say 'just' the intro, but retracted my statement.)
     
  4. Good luck, I think that whole solo was improvised, and in DADG I read somewhere...
     
  5. beefhat1

    beefhat1

    Jun 20, 2006
    Oregon
    I recommend that you kidnap Juan Alderete and demand he teach it to you. Other than that, it may just require a slow, grueling process of listening to it over and over until you can confidently write it out yourself. Or you could try a tab site (if you haven't already), but i reckon they wouldn't be too accurate, if they're there at all.
     
  6. I worked it out pretty quickly - it's not hard.

    I will have a go at tabbing or at least getting you some notes, but it won't be for a couple of days sorry.
     
  7. the_dasonator

    the_dasonator

    Oct 19, 2006
    Toronto
    Hey, that's quite allright. Anything is better than what I've got right now.
     
  8. slapslappopslap

    slapslappopslap

    Nov 22, 2006
    NZ
    its 10 to 2 in the morning and im beat, but ill do it tomorrow. if someone beats me to it, i wouldnt complain though.
     
  9. slapslappopslap

    slapslappopslap

    Nov 22, 2006
    NZ
    haah im up 2 20 seconds go me. at least its giving me something to do today.
     
  10. slapslappopslap

    slapslappopslap

    Nov 22, 2006
    NZ


    G|-------------------------9---10----------10--10--9----|
    D|----------------------7--------------(7)--------------|
    A|------------------7-8---------------------------------|
    D|-0----0----0---0--------------------------------------|

    G|-10h12^--------12-10------10-12-10-12/14------12-14-12|
    D|----------------------12------------------------------|
    A|------------------------------------------------------|
    D|------------------------------------------------------|

    G|10---12-10-------------------------------------------|
    D|------------12-10--------------------12^--12-10------|
    A|-----------------------12-13-12-12-------------13-12-|
    D|------------------0----------------------------------|

    G|-------------------------------------------------------|
    D|--------------7--------8-7--------8-7-8-----5-------5\-|
    A|10-13-12-10-8---10-8-7-----10-8-7---------------3------|
    D|-----------------------------------------0-------------|

    G|----------------------------------------------5-7-5-7^|
    D|-3-3---3--------------------------3----5-6-7----------|
    A|---------5-3h4-0h1/4/7---3-4-5-5----3-----------------|
    D|-----------------------5------------------------------|

    G|-7---7--5--------6^-5----5----------------------------|
    D|-----------7-6-5------7-6--7-6-5---5------------------|
    A|---------------------------------7---8\7-6-5-6-5-6-5-4|
    D|------------------------------------------------------|

    G|---------------------------------------------------|
    D|---------------------------------------------------|
    A|-3-2-1------5-5-----3-3-------3^--5----3-5---------|
    D|-------0--------0-0------0-3----------------0--0---|

    G|--------------------------------------------------------|
    D|-----------------3--------------------------------------|
    A|---3-3-4-4-5-5-5---5------3-5-3-----3-5-3-0-3--3--------|
    D|4---------------------0----------0---------------0--0---|

    G|---------------------5-------------5/7-6-5-5-----------|
    D|---------------5-6-7--7-----5-6-7------------7-6-5/7---|
    A|3-4-5-6/8-6-------------5-5----------------------------|
    D|-------------0-----------------------------------------|

    G|-----------------------5-7-9-9/12-10--------------------|
    D|-7-5-7-5--------5-7-8----------------12-12-11-10--------|
    A|----------8-7-8-----------------------------------13-12-|
    D|--------------------------------------------------------|

    G|----------------6^7-7--10--12--10-13^14-----------------|
    D|--------3/6-7-7----------------------------12---10-11-12|
    A|-10\5-6---------------------------------------8---------|
    D|--------------------------------------------------------|

    G|----12^-10------10----12\10--------------10-12-10^-----|
    D|-10---------12^----12-------12-10-11-12----------------|
    A|-------------------------------------------------------|
    D|-------------------------------------------------------|

    G|----10-10-11^-------------------------------------------|
    D|-12------------12-12--------10^---12---12^-10-----------|
    A|----------------------10-12----12--------------12-8--7--|
    D|--------------------------------------------------------|

    G|--------------------------------------------------------|
    D|----8-11^-----------------------------------------10^---|
    A|-10-------8-9-10-12^-12-10-8-7-5-6-7-8-9-10-8-12--------|
    D|--------------------------------------------------------|

    G|--------|
    D|-12^13--|
    A|--------|
    D|--------|


    Ok thats like the main intro bit,m until the rest of the band comes in. its somebody elses turn now. its probly completely wrong, but oh well haha:bassist: :bassist:
     
  11. Beaten to it! Sorry - got bogged down in work :(
     
  12. slapslappopslap

    slapslappopslap

    Nov 22, 2006
    NZ
    you can do the main bit, coz i sure as hell cannot be screwed to write it out haha
     
  13. the_dasonator

    the_dasonator

    Oct 19, 2006
    Toronto
    Thanks so much.
    I've got an essay to write for tomorrow, so as much as my bass is calling me, it will have to wait for now.
     
  14. slapslappopslap

    slapslappopslap

    Nov 22, 2006
    NZ
    good luck haha.
     
  15. Afrokid

    Afrokid

    Nov 24, 2006
    thank you good sir for tabbing out that solo. But would it be too much to ask to tab the verse, and the wierd break down thing that leads into the chorus.
     
  16. slapslappopslap

    slapslappopslap

    Nov 22, 2006
    NZ
    yes, far too much.
     
  17. Skit1

    Skit1 Guest

    Jul 2, 2004
    England
    Can I just add a thanks too?
    Im a big fan of TMV and would of never been able to tab this...

    Thanks!
    :D
     
  18. You Gotta Faxe

    You Gotta Faxe

    Aug 22, 2006
    fantastic. I've been looking all over for this tab, thanks man.
     
  19. slapslappopslap

    slapslappopslap

    Nov 22, 2006
    NZ
    i might just add, that took me about 6 hours. haha.
     
  20. Jkfielder

    Jkfielder

    Jan 8, 2007
    you are a god among men :D
     

Share This Page

  1. This site uses cookies to help personalise content, tailor your experience and to keep you logged in if you register.
    By continuing to use this site, you are consenting to our use of cookies.