Psst... Ready to join TalkBass and start posting, make new friends, sell your gear, and more?  Register your free account in 30 seconds.

Modern English - Melt With You

Discussion in 'Tablature and Notation [BG]' started by QORC, Feb 5, 2005.


  1. QORC

    QORC

    Aug 22, 2003
    East Coast
    this very famous song from the 80s. can't find a bass tab anywhere. I know the roots, but what is the bassist during under the verses? Anyone take a crack at it?
     
  2. Finger Blister

    Finger Blister

    Jul 8, 2003
    It is all roots.
    "under the verses" is syth keyboard bass.


    Melt With You - Modern English



    |---------|-------------------------|
    |---------|-------------------------|
    |---------|-3--3--3--3--3--3--3--3--|
    |---------|-------------------------|


    |-------------------------|-------------------------|
    |-------------------------|-------------------------|
    |-3--3--3--3--3--3--3--3--|-------------------------|
    |-------------------------|-1--1--1--1--1--1--1--1--|


    |-------------------------|-------------------------|
    |-------------------------|-------------------------|
    |-------------------------|-3--3--3--3--3--3--3--3--|
    |-1--1--1--1--1--1--1--1--|-------------------------|


    |-------------------------|-------------------------|
    |-------------------------|-------------------------|
    |-3--3--3--3--3--3--3--3--|-------------------------|
    |-------------------------|-1--1--1--1--1--1--1--1--|


    |-------------------------|-----------------------|
    |-------------------------|-----------------------|
    |-------------------------|-3--(3)-----3--(3)-----|
    |-1--1--1--1--1--1--1--1--|---------3----------3--|


    |------------------|-----------------------|-----------------|
    |------------------|-3--(3)-----3--(3)-----|-3--(3)-----3----|
    |-3--(3)-----3-----|---------3----------3--|---------3-------|
    |---------3-----3--|-----------------------|-----------------|


    |-----------------------|------------------|----------------------|
    |-----------------------|------------------|-3--(3)-----3--(3)----|
    |-3--(3)-----3--(3)-----|-3--(3)-----3-----|---------3----------3-|
    |---------3----------3--|---------3-----3--|----------------------|


    |--------------|-----------------------|------------------|
    |-3------3--3--|-----------------------|------------------|
    |-----3--------|-3--(3)-----3--(3)-----|-3--(3)-----3-----|
    |--------------|---------3----------3--|---------3-----3--|


    |-----------------------|-----------------|------------------------|
    |-3--(3)-----3--(3)-----|-3--(3)-----3----|------------------------|
    |---------3----------3--|---------3-------|-3--(3)-----3--(3)------|
    |-----------------------|-----------------|---------3----------3---|


    |------------------|-------------------|--------------|
    |------------------|-3--(3)-----3------|-3------3--3--|
    |-3--(3)-----3-----|---------3------3--|-----3--------|
    |---------3-----3--|-------------------|--------------|


    |-------------------------|-------------------------|
    |-------------------------|-------------------------|
    |-3--3--3--3--3--3--3--3--|-3--3--3--3--3--3--3--3--|
    |-------------------------|-------------------------|


    |-------------------------|-------------------------|
    |-------------------------|-------------------------|
    |-------------------------|-------------------------|
    |-1--1--1--1--1--1--1--1--|-1--1--1--1--1--1--1--1--|


    |-------------------------|-------------------------|
    |-------------------------|-------------------------|
    |-3--3--3--3--3--3--3--3--|-3--3--3--3--3--3--3--3--|
    |-------------------------|-------------------------|


    |-------------------------|-------------------------|
    |-------------------------|-------------------------|
    |-------------------------|-------------------------|
    |-1--1--1--1--1--1--1--1--|-1--1--1--1--1--1--1--1--|


    |-------------------------|-------------------------|
    |-------------------------|-------------------------|
    |-3--3--3--3--3--3--3--3--|-3--3--3--3--3--3--3--3--|
    |-------------------------|-------------------------|


    |-------------------------|-------------------------|
    |-------------------------|-------------------------|
    |-------------------------|-------------------------|
    |-1--1--1--1--1--1--1--1--|-1--1--1--1--1--1--1--1--|


    |-------------------------|-------------------------|
    |-------------------------|-------------------------|
    |-3--3--3--3--3--3--3--3--|-3--3--3--3--3--3--3--3--|
    |-------------------------|-------------------------|


    |-------------------------|-------------------------|
    |-------------------------|-------------------------|
    |-------------------------|-------------------------|
    |-1--1--1--1--1--1--1--1--|-1--1--1--1--1--1--1--1--|


    |-------------|-0----(0)----|-2--------|-------------|
    |-2----(2)----|-------------|----------|-------------|
    |-------------|-------------|----------|-0----(0)----|
    |-------------|-------------|----------|-------------|


    |-------------|-0----(0)----|-2--------|-(2)----(2)----|
    |-2----(2)----|-------------|----------|---------------|
    |-------------|-------------|----------|---------------|
    |-------------|-------------|----------|---------------|


    |-------------------------|-------------------------|
    |-------------------------|-------------------------|
    |-3--3--3--3--3--3--3--3--|-3--3--3--3--3--3--3--3--|
    |-------------------------|-------------------------|


    |-------------------------|-------------------------|
    |-------------------------|-------------------------|
    |-------------------------|-------------------------|
    |-1--1--1--1--1--1--1--1--|-1--1--1--1--1--1--1--1--|


    |-------------------------|-------------------------|
    |-------------------------|-------------------------|
    |-3--3--3--3--3--3--3--3--|-3--3--3--3--3--3--3--3--|
    |-------------------------|-------------------------|


    |-------------------------|-------------------------|
    |-------------------------|-------------------------|
    |-------------------------|-------------------------|
    |-1--1--1--1--1--1--1--1--|-1--1--1--1--1--1--1--1--|


    |-------------------------|-------------------------|
    |-------------------------|-------------------------|
    |-3--3--3--3--3--3--3--3--|-3--3--3--3--3--3--3--3--|
    |-------------------------|-------------------------|


    |-------------------------|-------------------------|
    |-------------------------|-------------------------|
    |-------------------------|-------------------------|
    |-1--1--1--1--1--1--1--1--|-1--1--1--1--1--1--1--1--|


    |-------------------------|-------------------------|
    |-------------------------|-------------------------|
    |-3--3--3--3--3--3--3--3--|-3--3--3--3--3--3--3--3--|
    |-------------------------|-------------------------|


    |-------------------------|-------------------------|
    |-------------------------|-------------------------|
    |-------------------------|-------------------------|
    |-1--1--1--1--1--1--1--1--|-1--1--1--1--1--1--1--1--|


    |-------------------------|-------------------------|
    |-2--2--2--2--2--2--2--2--|-2--2--2--2--2--2--2--2--|
    |-------------------------|-------------------------|
    |-------------------------|-------------------------|


    |----------|----------|
    |-2--------|----------|
    |----------|----------|
    |----------|-0--------|







     
  3. Finger Blister

    Finger Blister

    Jul 8, 2003
    You can maybe throw in a few riffs from the tuneful lines...

    Melt With You - Modern English - Main Lead Synth Lines converted for Bass.


    |---------|-12---21-(21)------|------24-(24)------21--|------22-(22)--21--|
    |---------|---------------22--|-(22)----------22------|-19----------------|
    |---------|-------------------|-----------------------|-------------------|
    |---------|-------------------|-----------------------|-------------------|


    |-------------------|------21-(21)------|
    |-22------------22--|---------------22--|
    |------24-(24)------|-22----------------|
    |-------------------|-------------------|


    |------21-(21)------|------22-(22)--21--|
    |---------------22--|-------------------|
    |-22----------------|-24----------------|
    |-------------------|-------------------|


    |-------------------|------21-(21)--21--|
    |-22------------22--|---------------22--|
    |------24-(24)------|-22----------------|
    |-------------------|-------------------|


    |--24-(24)------21--|------22-(22)--21--|
    |-----------22------|-19----------------|
    |-------------------|-------------------|
    |-------------------|-------------------|


    |-------------------|------21-(21)------|
    |-22------------22--|---------------22--|
    |------24-(24)------|-22----------------|
    |-------------------|-------------------|


    |------21-(21)------|------22-(22)--21--|
    |---------------22--|-------------------|
    |-22----------------|-24----------------|
    |-------------------|-------------------|


    |-------------------|-----------|-----------------|-----|
    |-22------------22--|-21--------|-(21)----(21)----|-----|
    |------24-(24)------|-----------|-----------------|-----|
    |-------------------|-----------|-----------------|-----|


    |------------------------------|----------12-11-9-12-11-|-9-12-11-9-12-11-9-12-|
    |------------------------------|-17-16-14---------------|----------------------|
    |--19--19--19--19--19--19--19--|------------------------|----------------------|
    |------------------------------|------------------------|----------------------|


    |-11-9-12-11-9-12-11-9-|-12-11-9-12-11-9-12-11-|
    |----------------------|-----------------------|
    |----------------------|-----------------------|
    |----------------------|-----------------------|


    |-12---21-(21)------|------24-(24)------21--|
    |---------------22--|-(22)----------22------|
    |-------------------|-----------------------|
    |-------------------|-----------------------|


    |------22-(22)--21--|-------------------|
    |-19----------------|-22------------22--|
    |-------------------|------24-(24)------|
    |-------------------|-------------------|


    |------21-(21)------|------21-(21)------|
    |---------------22--|---------------22--|
    |-22----------------|-22----------------|
    |-------------------|-------------------|


    |------22-(22)--21--|-------------------|
    |-------------------|-22------------22--|
    |-24----------------|------24-(24)------|
    |-------------------|-------------------|


    |------21-(21)------|------24-(24)------21--|
    |---------------22--|-(22)----------22------|
    |-22----------------|-----------------------|
    |-------------------|-----------------------|


    |------22-(22)--21--|-------------------|
    |-19----------------|-22------------22--|
    |-------------------|------24-(24)------|
    |-------------------|-------------------|


    |------21-(21)------|------21-(21)------|
    |---------------22--|---------------22--|
    |-22----------------|-22----------------|
    |-------------------|-------------------|


    |------22-(22)--21--|-------------------|---------------|-------------|
    |-------------------|-22------------22--|---------------|-------------|
    |-24----------------|------24-(24)------|-19------------|-19----------|
    |-------------------|-------------------|-19------------|-19----------|


    |-21--------|-21--------|
    |-21--------|-21--------|
    |-23--------|-23--------|
    |-----------|-----------|



     
  4. QORC

    QORC

    Aug 22, 2003
    East Coast
    cool! thanks, guys
     
  5. yeah, because playing c -f for 3 minutes is horrible. ;)