Dismiss Notice

Psst... Ready to join TalkBass and start posting, make new friends, sell your gear, and more?  Register your free account in 30 seconds.

muse - hysteria

Discussion in 'Tablature and Notation [BG]' started by hvingsand, Jan 29, 2005.


  1. ok... does anyone kno where I can find CORRECT tabs for

    muse - hysteria?

    I've seen it around, but don't agree 100%... :rollno:
     
  2. OK this is the main bit, but not the chorus, but it's a start:
    G-------------------------------------------------------------------
    D-------------------------------------------------------------------
    A-0-0-10 -0-10-12-0-10-0-7-0-8-8-7-5-7--------------------
    E-------------------------------------------------------------------

    G------------------------------------------------------------------
    D------------------------------------------------------------------
    A------------------------------------------------------------------
    E-0-0-10-0-10-12-0-15-0-12-0-15-15-0-15-17-------------

    G----------------------------------------------------------------
    D-0-0-10-0-10-12-0-10-0-10-9-0-9-8-0-8---------------
    A----------------------------------------------------------------
    E----------------------------------------------------------------

    G-------------------------------------------------------------------
    D-7------------------------------------------------------------------
    A---0-10 -0-10-12-0-10-0-7-0-8-8-7-5-7--------------------
    E-------------------------------------------------------------------

    The Heavy Bit

    G--------------------------------------------------------------
    D--------------------------------------------------------------
    A--------------------------------------------------------------
    E--0-0-10-0-10-12-0-10-0-10-9-0-9-8-0-8--------------

    G--------------------------------------------------------------
    D--------------------------------------------------------------
    A--------------------------------------------------------------
    E--7-0-10-0-10-12-0-10-0-10-9-0-9-8-0-8-------------- x2

    G------------------------------------------------------------------
    D------------------------------------------------------------------
    A------------------------------------------------------------------
    E-0-0-10-0-10-12-0-15-0-12-0-15-15-0-15-17-------------
     
  3. cool! thanx! I used to use tabs when I was beginner, but now I hate tabs, I use my ears... I never saw a tab 100% correct on the net, there is always a lot of mistakes... like at mxtabs.net, "bassists" tab a lot of songs, and the more they tab songs the more they're popular in tabs websites... I find this stupid, they tabs whitout ears, mostly the tabs are just ****... and this tab of hysteria is perfect man! finally a guy who is able to tab, lol! :bassist:
     
  4. I didn;t tab it, I got sent it by a friend of mine. I'm useless at tabbing stuff.
     
  5. no, actually I found a mistake, in the 2nd line. In the tab it's written:

    G---------------------------------------------------------
    D---------------------------------------------------------
    A---------------------------------------------------------
    E-0-0-10-0-10-12-0-15-0-12-0-15-15-0-15-17------------

    but it's:

    G-----------------------------------------------------------
    D-----------------------------------------------------------
    A-----------------------------------------------------------
    E-0-0-10-0-10-12-0-15-0-12-0-15-15-12-15-17-------------
     
  6. :eek: :eek: :eek: :eek: :eek: :eek: :eek: :eek:
     
  7. dirtgroove

    dirtgroove

    Jan 10, 2003
    Taipei, Taiwan
    what's he got against crossing strings? :confused:
     
  8. It looks cooler when you lay the whole neck on one string... ;)
     
  9. nataku

    nataku

    Jun 21, 2004
    San Jose, CA
    G|---5-3h5---5-3h5---------------------
    D|----------------------5-3h5----5-3h5-
    A|-3-------3----------------------------
    E|-------------------3---------3--------

    G|---7-5h7---7-5h7---------------------
    D|----------------------7-5h7----7-5h7-
    A|-5-------5----------------------------
    E|-------------------5---------5--------

    since no1 tabbed out the chorus i thought i would do it. im not sure if its right really at all but this is what it sounds like to me. chris plays it fingerstyle but i usually play it slap/pop to make it sound funkier. sometimes i also add open notes in between chord changes or play the root note twice with the thumb. just some ideas if any of you want to play it.
     
  10. Trevorus

    Trevorus

    Oct 18, 2002
    Urbana, IL
    boo boo boo boo boo booo boo boooo boo boooboo booo

    meedleemeedleemeedleemeedleemeedleemeedleemeedleemeedleemeedlee
    meedleemeedleemeedleemeedleemeedleemeedleemeedleemeedleemeedlee
    meedleemeedleemeedleemeedleemeedleemeedleemeedleeMEEEEEEEE!!!

    AND THE DRAGON COMES IN THE NIIIIIIIIIIGHT!!!!


    Sorry, I had to do it.