Psst... Ready to join TalkBass and start posting, make new friends, sell your gear, and more?  Register your free account in 30 seconds.

My bands song

Discussion in 'Tablature and Notation [BG]' started by crazybassist601, Nov 23, 2005.


  1. Can anyone figure out fingering for this? We made it up yet I cant play it, and it is played decently fast with a pick, Can anyone figure out the left hand fingering?

    G---7-9--7-9--7-9-10-9-7-9
    D--9----9----9-------------
    A-7----7----7--------------
    D--------------------------

    G---7-9--7-9-7-9--7-------
    D--9----9--------9--7-9--7
    A-7----7---------------10--
    D--------------------------

    I have been trying for the life of me but I cant figure out which finger goes where... Its driving me nuts

    4:4 time by the way.

    If you figure this out I owe you with my life.
    Thank you for whoever even attempts this.
     
  2. PunkerTrav

    PunkerTrav

    Jul 18, 2001
    Canada & USA
    If I were to play that, I'd use my pointer finger to start on the E and just hold tha tposition, using one finger per fret.
     
  3. 7th position, index finger on E. You do not have to move position.
     
  4. I am using extra heavy guage strings, so should I just bar my finger over the 7th fret? It is hard to barre all 3 strings but if I must id find a way.
    Is that what you meant?
     
  5. Place your index finger on your fretting hand over the 7th fret on the A string.

    Without moving your hand, use your index finger on your fret hand for the 7's, the middle finger for the 9's and your pinky for the 10's.

    Hope that helps.
     
  6. nasaldischarges

    nasaldischarges

    Jun 11, 2005

    G---7-9--7-9--7-9-10-9-7-9-
    D--9----9----9-------------
    A-7----7----7--------------
    D--------------------------
    ..IRI RIRI RIRI R P .R I R


    G---7-9--7-9-7-9--7--------
    D--9----9--------9--7-9--7-
    A-7----7---------------10--
    D--------------------------
    ..IRI RIRI R I R RI I R PI

    Key: I=Index R=Ring P=Pinky .=disregard