1. Please take 30 seconds to register your free account to remove most ads, post topics, make friends, earn reward points at our store, and more!  

My first tabbing project- a little Bach

Discussion in 'Tablature and Notation [BG]' started by jinithith2, Jul 18, 2007.


  1. jinithith2

    jinithith2

    Jul 15, 2007
    New Hampshire
    K so I was fooling around today and I got into that mellow mood where i just started improvising some tunes. well an idea popped into my mind and i decided to tab it out.
    most if not all of you have heard this before:


    I know its classical, but before I was a rock and metal lover, I was raised by classical music. it turns out on bass, it sounds pretty good!

    I have the first 28 seconds tabbed out. a lot of 3rd and 4th fingers

    Bach - Cello Suite No.1 Prelude
    Tabbed by Kyo-Jin Lee

    G|-------------------|
    D|----0-9-7-9-0-9-0-|
    A|-10----------------| x2
    E|-------------------|

    G|----------------------|
    D|------10-9-10---10---|
    A|-10-7---------7----7-| x2
    E|----------------------|

    G|-------------------------|
    D|------10-9-10---10------|
    A|-10-9---------9----9----| x2
    E|-------------------------|

    G|-------------------------------------------|
    D|--------9-7-9----9-----------9-7-9----9---|
    A|-10-10--------10---10-10-10-------10---9-|
    E|-------------------------------------------|

    G|-------------------------------------------|
    D|------9-7-9--------------------------------|
    A|-7-7--------10-9-10-7-10-9-10-------------|
    E|--------------------------------7-10-9-7-9-|

    G|-------------------------------------------------|
    D|-------------------------------------------------|
    A|-10-12-10-12-10-12-10---10-12-10-12-10-12-10-|
    E|------------------------9------------------------|


    G|-------------------------------------------------|
    D|-------12-11-12---------------------------------|
    A|-9-12-----------12-10-12-9-12-10-12----9-7----|
    E|--------------------------------------10-----10-|

    G|---------------------|
    D|---------------------|
    A|-----10-9-10---10---| x2
    E|-0-7----------7----7-|

    try it and tell me what you think!

    thanks!:bassist:
     
  2. TheBassBetween

    TheBassBetween

    Jun 25, 2005
    Cool stuff! Bach on bass is awesome!
     
  3. triggervision

    triggervision

    May 24, 2006
    Sounds really good to me brother...NOW FINISH!!..haha.j/k
     
  4. jinithith2

    jinithith2

    Jul 15, 2007
    New Hampshire
    updated
    thanks for the comments :)
     

Share This Page

  1. This site uses cookies to help personalise content, tailor your experience and to keep you logged in if you register.
    By continuing to use this site, you are consenting to our use of cookies.