My Generation Solo

Discussion in 'Tablature and Notation [BG]' started by dfreeman, Oct 9, 2002.


  1. how do you play that, I know that the tab for it on OLGA is wrong. I once saw the real tab for it in a book at a music store, and it was way different than what is on OLGA, but i didn't have any money at the time. So, where can I find correct tab for My Generation?

    Doug
     
  2. Stupidnick

    Stupidnick

    Mar 22, 2002
    ...my room...
    hey man .. heres what i tabbed out from my generation.. by ..the great who!


    -----------------
    --5555---3333---
    -----------------
    -----------------main riff
    tthen...

    ----5-7-5-3--3--------
    --5---------5--5-3--3-
    -------------------3--5
    -----------------------
    first solo
    then

    D-5-5-3--3
    A-------5--5-1-1-0
    E------------------3-1-2
    second solo

    third solo
    5765|5303-----------
    ----------5303------
    ---------------5301-
    --------------------3

    and then

    on the D string
    D5-555 3-333
    A 3-333 1-1

    phew.. anyway.. theres the solos =D
    great stuff man.. have fun with it
     
  3. Thanks a lot man! you just made my week!

    R.I.P.- John