Dismiss Notice

Psst... Ready to join TalkBass and start posting, make new friends, sell your gear, and more?  Register your free account in 30 seconds.

N.I.B. Intro?

Discussion in 'Tablature and Notation [BG]' started by NonSense121, Jul 31, 2002.


  1. I got most of N.I.B. down, except the big intro. And I cant seem to find any tabs for this. If you know where then post it up. thnx
     
  2. check TalkBass's tab mirror, the song is titled "Bassically"

    btw, can we get this Q&A in the FAQ? :)
     
  3. zzzz.zzzzz..zzz...zzzhwat ? what ?!?!? uh... yes officer, i'll move along...zzwwzzzzz...zzzzz

    * 10 minutes later *

    uhm..you should PM superduck.. he did the FAQ..
     
  4. If you look at NIB under Primus, the intro is there
     
  5. Listen

    Listen

    May 19, 2002
    not the same intro
     
  6. G ---------------------------------------
    D ------------5-4------------7B-7-5----
    A --7-7-5-7-------7-7-5-7-------------
    E ---------------------------------------

    G ----------------------------------------------
    D ------------5-4-----------------------5------
    A --7-7-5-7-------7-7-5-7-------5-7---------
    E ----------------------------5-7--------------

    (B: bend)
     
  7. ok, maybe some of you dont have the same version as I do. BEFORE the actual song he plays this big fast intro. THATS what I'm lookin for. I already got what down the tab that George Looney posted. I need the stuff thats before it.
     
  8. Listen

    Listen

    May 19, 2002
    it's called "bassicaly" look in the tab section it's there under black sabbath!
     
  9. Have any of you actually heard Bassically AND the intro on NIB? its not the same. I've been forced to tab it by myself. If you wanna know what I got so far ask me.
     
  10. Listen

    Listen

    May 19, 2002
    Do you mean the primus version of bassicaly? because the title of the intro of NIB is "bassicaly"
     
  11. If you swear its wrong, go ahead and make another one, but I myself (and as far as I can tell, many others on the board) will tell you that the tab is very close. No it's not perfect, no tabs are, nor will they ever be, but its oh, 90% on, which qualifies it as a very good tab.

    That said, good luck making your own.
     
  12. PHP:
    |---------------------------------------------9-9p7-9^-9p7-----------
    |---------
    5^---5-7-7^-7-5-------5^-----7--7-9--------------9p7-9-----
    |-
    7-7-5------7------------7-5------5-7---------------------------10--
    |-------
    7---------------------7--------------------------------------


    |-------------------------------------------------------
    |-----
    5--7^-7-5----------------------5-----5-7^-7-5-----
    |-
    5-7-----------7-5--------------7-7---7-7----------7---
    |-------------------
    7-5-3^-0-5-7------------------------


    |-----
    7h9-9-9-7---------------------------------------------------
    |-
    7-9-----------9-7h9----5--------------5-7^-7-5---5--------------
    |---------------------
    10---7--------5-7----------7---7-5----------
    |----------------------------
    7--5-7----------------------7-5-3-0--



    |---------------------------------------------------------
    |---------
    5---------------5-7-7^-7-5------5-5-7-7^^7-5----
    |-----
    5-7---7----7-5-7--7-------------5-7--------------7--
    |-
    5-7-----------------------------------------------------


    |---------------------------------
    9-9-9-7-----------------
    |--------------
    5-7-7^-7-5-----7-9---------7h9-5-------5---
    |--
    7-5-----5-7------------7---------------------7-5-------
    |------
    5-7------------------------------------------7-----



    |--------------------------------------------------------------------
    |-------------------
    5---------------------5h7p5---------------7^-7-5-
    |-
    7-5----7-5----5-7---7---5---7---5---7---------7---7-5---5-7--------
    |-----
    7-------7-------------7---7---7---7---------------7------------


    |----------------------------------------------------------
    |----------------------------------------------------------
    |-
    7-7-7-7-5---5-7------------------------------------------
    |-----------
    7----------------------------------------------

    enjoy

    -lex