Psst... Ready to join TalkBass and start posting, make new friends, sell your gear, and more?  Register your free account in 30 seconds.

Need a little help

Discussion in 'Tablature and Notation [BG]' started by Rick Torres, Jan 14, 2005.


  1. Rick Torres

    Rick Torres

    Dec 19, 2004
    Seattle,Wa.
    Anybody know where I can find the tab for Robert Cray's Smokin Gun.

    Rick Torres
     
  2. jani_bjorklund

    jani_bjorklund

    May 22, 2002
    Finland
    I'll try to tab it for you in 24h
     
  3. Rick Torres

    Rick Torres

    Dec 19, 2004
    Seattle,Wa.
    Thank you Jani. I hope its not to much trouble. Im new to the bass and still learning to work songs out by ear. I appreicate any help.

    Rick Torres
     
  4. jani_bjorklund

    jani_bjorklund

    May 22, 2002
    Finland

    Smoking Gun
    Robert Cray
    TablEdited by Poppamies
    Tuning : E A D G Time Signature: 4/4

    tempo 126
    |--------------------------------|--------------------------------|
    |------------------------5-------|--------------------------------|
    |7---------------5-----------7---|----------------5-------5-------|
    |------------7-------7-----------|------------7-------7-------6---|


    |--------------------------------|--------------------------------|
    |------------------------5-------|--------------------------------|
    |7---------------5-----------7---|----------------5-------5-------|
    |------------7-------7-----------|------------7-------7-------6---|


    |--------------------------------|--------------------------------|
    |------------------------5-------|--------------------------------|
    |7---------------5-----------7---|----------------5-------5-------|
    |------------7-------7-----------|------------7-------7-------6---|


    |--------------------------------|--------------------------------|
    |------------------------5-------|--------------------------------|
    |7---------------5-----------7---|----------------5-------5-------|
    |------------7-------7-----------|------------7-------7-------6---|


    |--------------------------------|--------------------------------|
    |------------------------5-------|--------------------------------|
    |7---------------5-----------7---|----------------5-------5-------|
    |------------7-------7-----------|------------7-------7-------6---|


    |--------------------------------|--------------------------------|
    |------------------------5-------|--------------------------------|
    |7---------------5-----------7---|----------------5-------5-------|
    |------------7-------7-----------|------------7---------------6---|


    |--------------------------------|--------------------------------|
    |------------------------5-------|--------------------------------|
    |7---------------5-----------7---|----------------5-------5-------|
    |------------7-------7-----------|------------7-------7-------6---|


    |--------------------------------|--------------------------------|
    |------------------------5-------|--------------------------------|
    |7---------------5-----------5---|7---------------5-------5---7---|
    |------------7-------7-----------|------------7-------7-----------|

    |--------------------------------|--------------------------------|
    |--------------------------------|----------------------------0---|
    |0-----------3---3-------0---0---|----------------0-------3-------|
    |--------------------------------|------------3-------------------|


    |--------------------------------|--------------------------------|
    |2-------------------------------|--------------------------------|
    |--------------------------------|--------------------------------|
    |------------3---3-------0---0---|------------0---3-------4-------|

    |--------------------------------|------------------------0---2---|
    |--------------------------------|--------------------2-----------|
    |0-----------3---3-------0---0---|------------0-------------------|
    |--------------------------------|----3---------------------------|

    |3-------2---0---2---0-----------|--------------------------------|
    |------------------------2-------|------------------------5-------|
    |--------------------------------|----------------5-----------7---|
    |----------------------------0---|------------7-------7-----------|


    |--------------------------------|--------------------------------|
    |--------------------------------|------------------------5-------|
    |----------------5-------5-------|7---------------5-----------7---|
    |------------7-------7-------6---|------------7-------7-----------|


    |--------------------------------|--------------------------------|
    |--------------------------------|---------and so on ...----------|
    |----------------5-------5-------|--------------------------------|
    |------------7-------7-------6---|--------------------------------|

    Transcribe! 6.0 transcription http://www.seventhstring.demon.co.uk/
    Created with TablEdit http://www.tabledit.com/
    http://www.geocities.com/jani_bjorklund/janis.html