Psst... Ready to join TalkBass and start posting, make new friends, sell your gear, and more?  Register your free account in 30 seconds.

Need a snappy blues bass line - Keep Your Hands to Yourself

Discussion in 'Tablature and Notation [BG]' started by QORC, Feb 15, 2005.


  1. QORC

    QORC

    Aug 22, 2003
    East Coast
    to go with "Keep Your Hands To Yourself". Anyone got some ideas?

    really can't quite hear what the bassist is doing on the recording - highly buried in the mix.

    but we play it live and do an extended lead at the end...so
     
  2. Finger Blister

    Finger Blister

    Jul 8, 2003

    GEORGIA SATELLITES-
    KEEP YOUR HANDS TO YOURSELF

    Drop D tuning: DADG

    (Bassline)


    |---------|---------|---------|-----|
    |---------|---------|---------|-----|
    |---------|---------|---------|-----|
    |---------|---------|---------|-----|


    |---------|---------|---------|-----|
    |---------|---------|---------|-----|
    |---------|---------|---------|-----|
    |---------|---------|---------|-----|


    |---------|---------|---------|-----|
    |---------|---------|---------|-----|
    |---------|---------|---------|-----|
    |---------|---------|---------|-----|


    |---------|---------|---------|-----|
    |---------|---------|---------|-----|
    |---------|---------|---------|-----|
    |---------|---------|---------|-----|


    |----------|------2---2-|-----------------|-----------------|
    |----------|------------|-----------------|-----------------|
    |-0--------|--------0---|-0--0------------|-0--0------------|
    |----------|------------|------4-2--2-4-2-|------4-2--2-4-2-|


    |-----------------|------------------|------------------2-|
    |-----------------|------------------|--------------------|
    |-0--0------------|-0--0-------------|-0--(0)--0--0-(0)---|
    |------4-2--2-4-2-|------4-2--2-4-2--|--------------------|


    |----------------------|--------------------------|-----2-(2)---2---|
    |----------------------|--------------------------|---------------2-|
    |-0--(0)--0-(0)----0---|-0--(0)--0-(0)--0-(0)--0--|-0---------0-----|
    |----------------2---2-|--------------------------|-----------------|


    |-----------------------|----------------------|-------------------|
    |-0--(0)--0-(0)--0------|----------------------|-------------7---7-|
    |------------------3-5--|-5--(5)--5-(5)--5-3-5-|---------------7---|
    |-----------------------|----------------------|-7--7--7-(7)-------|


    |-----------------|---------------------|---------------------|-----------|
    |-----7-(7)-5-----|-------------------2-|-2--(2)--2-(2)-----2-|-----------|
    |-------------7---|-7--(7)--7-(7)-------|---------------2-----|-0---------|
    |-7-------------7-|---------------9-2---|-----------------2---|-----------|


    |-------------|--------------------|----------------------|
    |-------------|------------------7-|----------------------|
    |-------------|--------------------|------------------0---|
    |------2-5-5--|-7--(7)--7--7-(7)---|-7--(7)--7-(7)--2---2-|


    |--------------------------|-----2-(2)---2---|-----------------------|
    |--------------------------|---------------2-|-0--(0)--0-(0)--0------|
    |-0--(0)--0-(0)--0-(0)--0--|-0---------0-----|------------------3-5--|
    |--------------------------|-----------------|-----------------------|


    |----------------------|-------------------|
    |----------------------|-------------7---7-|
    |-5--(5)--5-(5)--5-3-5-|---------------7---|
    |----------------------|-7--7--7-(7)-------|


    |-----------------|---------------------|
    |-----7-(7)-5-----|-------------------2-|
    |-------------7---|-7--(7)--7-(7)-------|
    |-7-------------7-|---------------9-2---|


    |---------------------|----2---2--2---2--|-2----1----------------|
    |-0--(0)--0-(0)-----0-|------------------|---------2-(2)--2---2--|
    |---------------0-----|-0----0------0----|---0-------------------|
    |-----------------0---|------------------|------------------2----|


    |------------------2-|----------------------|--------------------------|
    |--------------------|----------------------|--------------------------|
    |-0--(0)--0--0-(0)---|-0--(0)--0-(0)----0---|-0--(0)--0-(0)--0-(0)--0--|
    |--------------------|----------------2---2-|--------------------------|


    |-----2-(2)---2---|-----------------------|-----------------------|
    |---------------2-|-0--(0)--0-(0)--0------|-----------------------|
    |-0---------0-----|------------------3-5--|-5--(5)--5-(5)--5-3-5--|
    |-----------------|-----------------------|-----------------------|


    |-------------------|-----------------|
    |-------------7---7-|-----7-(7)-5-----|
    |---------------7---|-------------7---|
    |-7--7--7-(7)-------|-7-------------7-|


    |---------------------|----------------------|
    |-------------------2-|-0--(0)--0-(0)-----0--|
    |-7--(7)--7-(7)-------|---------------0------|
    |---------------9-2---|-----------------0----|


    |----2---2--2---2--|-2----1----------------|------------------2-|
    |------------------|---------2-(2)--2---2--|--------------------|
    |-0----0------0----|---0-------------------|-0--(0)--0--0-(0)---|
    |------------------|------------------2----|--------------------|


    |----------------------|--------------------------|-----2-(2)---2---|
    |----------------------|--------------------------|---------------2-|
    |-0--(0)--0-(0)----0---|-0--(0)--0-(0)--0-(0)--0--|-0---------0-----|
    |----------------2---2-|--------------------------|-----------------|


    |-----------------------|----------------------|-------------------|
    |-0--(0)--0-(0)--0------|----------------------|-------------7---7-|
    |------------------3-5--|-5--(5)--5-(5)--5-3-5-|---------------7---|
    |-----------------------|----------------------|-7--7--7-(7)-------|


    |-----------------|---------------------|---------------------|----------|
    |-----7-(7)-5-----|-------------------2-|-2--(2)--2-(2)-----2-|----------|
    |-------------7---|-7--(7)--7-(7)-------|---------------2-----|-0--------|
    |-7-------------7-|---------------9-2---|-----------------2---|----------|


    |-------------|--------------------|----------------------|
    |-------------|------------------7-|----------------------|
    |-------------|--------------------|------------------0---|
    |------2-5-5--|-7--(7)--7--7-(7)---|-7--(7)--7-(7)--2---2-|


    |--------------------------|-----2-(2)---2---|-----------------------|
    |--------------------------|---------------2-|-0--(0)--0-(0)--0------|
    |-0--(0)--0-(0)--0-(0)--0--|-0---------0-----|------------------3-5--|
    |--------------------------|-----------------|-----------------------|


    |----------------------|-------------------|
    |----------------------|-------------7---7-|
    |-5--(5)--5-(5)--5-3-5-|---------------7---|
    |----------------------|-7--7--7-(7)-------|


    |-----------------|---------------------|
    |-----7-(7)-5-----|-------------------2-|
    |-------------7---|-7--(7)--7-(7)-------|
    |-7-------------7-|---------------9-2---|


    |---------------------|----2---2--2---2--|-2----1----------------|
    |-0--(0)--0-(0)-----0-|------------------|---------2-(2)--2---2--|
    |---------------0-----|-0----0------0----|---0-------------------|
    |-----------------0---|------------------|------------------2----|


    |------------------2-|----------------------|--------------------------|
    |--------------------|----------------------|--------------------------|
    |-0--(0)--0--0-(0)---|-0--(0)--0-(0)----0---|-0--(0)--0-(0)--0-(0)--0--|
    |--------------------|----------------2---2-|--------------------------|


    |-----2-(2)---2---|-----------------------|-----------------------|
    |---------------2-|-0--(0)--0-(0)--0------|-----------------------|
    |-0---------0-----|------------------3-5--|-5--(5)--5-(5)--5-3-5--|
    |-----------------|-----------------------|-----------------------|


    |-------------------|-----------------|
    |-------------7---7-|-----7-(7)-5-----|
    |---------------7---|-------------7---|
    |-7--7--7-(7)-------|-7-------------7-|


    |---------------------|----------------------|
    |-------------------2-|-0--(0)--0-(0)-----0--|
    |-7--(7)--7-(7)-------|---------------0------|
    |---------------9-2---|-----------------0----|


    |----2---2--2---2--|-2----1----------------|------------------2-|
    |------------------|---------2-(2)--2---2--|--------------------|
    |-0----0------0----|---0-------------------|-0--(0)--0--0-(0)---|
    |------------------|------------------2----|--------------------|


    |----------------------|--------------------------|-----2-(2)---2---|
    |----------------------|--------------------------|---------------2-|
    |-0--(0)--0-(0)----0---|-0--(0)--0-(0)--0-(0)--0--|-0---------0-----|
    |----------------2---2-|--------------------------|-----------------|


    |-----------------------|----------------------|-------------------|
    |-0--(0)--0-(0)--0------|----------------------|-------------7---7-|
    |------------------3-5--|-5--(5)--5-(5)--5-3-5-|---------------7---|
    |-----------------------|----------------------|-7--7--7-(7)-------|


    |-----------------|------2-2---2-2------|--2---2-------*|
    |-----7-(7)-5-2---|---------------------|--------------*|
    |-------------3-0-|-0----0---0-0---0--0-|--0-0-0-------*|
    |-7---------------|---------------------|--------------*|



    * Generated using Power Tab Editor by Brad Larsen - http://powertab.guitarnetwork.org

     
  3. QORC

    QORC

    Aug 22, 2003
    East Coast
    bitchin! can't wait to try it out