1. Please take 30 seconds to register your free account to remove most ads, post topics, make friends, earn reward points at our store, and more!  
  2. Welcome Back!  Please see this thread for more info about the site outage.  Thank you for your patience as we work out bugs and tweak server configs.

Submission Need Feedback On First Tab

Discussion in 'Tablature and Notation [BG]' started by WeedMonkey, Dec 22, 2016.


Tags:
  1. WeedMonkey

    WeedMonkey

    Dec 22, 2016
    Hey guys I'm new to the site and just wanted some feedback on my first tab. The Song is called Woe's Me by Weedeater. If anyone can point out any mistakes or let me know if the song is accurate I'd greatly appreciate it!

    Woe's Me - Weedeater
    D Standard
    Key of Eb

    |-------------|-------------|-------------|-------------|
    |-------------|-3-1--------|-------------|-3-1---------|
    |-------------|-----3-2----|---2-1------|-----3-2-----|
    |-1-----------|------------|-1-----1-----|-------------|

    |-------------|-------------|-------------|-------------|
    |-------------|-3-1--------|-------------|-------------|
    |-2--1-------|-----3-2----|---3-2-1----|---3---2-----|
    |-------1-----|-------------|-1----------|-1---1-------|

    |-------------|-------------|-------------|-------------|
    |-------------|-3-1--------|-------------|-3-1---------|
    |---2--1------|-----3-2----|---3-1------|-----3-2----|
    |-1------1----|-------------|-1-----1----|-------------|

    |-------------|-------------|-------------|-------------|
    |-------------|-3-1--------|-------------|-------------|
    |-2--1-------|-----3-2-----|---3-2-1---|---3---2-----|
    |-------1-----|-------------|-1----------|-1---1-------|

    Woe's Me...
    |-------------|
    |-------------|
    |---2--1------|
    |-1------1----|
     
  2. ChrisDev

    ChrisDev Supporting Member Commercial User

    Aug 18, 2009
    Belgium
    Ritter Instruments Team & Owner BassLessons.be
    This is what I hear.
    - notation in Eb minor
    - 5-string TAB
    - 4-string TAB tuned 1/2 step down

    May I ask why you wrote it a whole step down?
    [​IMG]
     
    Last edited: Dec 22, 2016
    LeeNunn likes this.
  3. WeedMonkey

    WeedMonkey

    Dec 22, 2016
    I was tuned to D Standard and it sounded right idk
     
  4. WeedMonkey

    WeedMonkey

    Dec 22, 2016
    Thanks btw looks like I was a bit off haha
     
  5. ChrisDev

    ChrisDev Supporting Member Commercial User

    Aug 18, 2009
    Belgium
    Ritter Instruments Team & Owner BassLessons.be
  6. Primary

    Primary TB Assistant

    Here are some related products that TB members are talking about. Clicking on a product will take you to TB’s partner, Primary, where you can find links to TB discussions about these products.

     
    Apr 10, 2021

Share This Page

  1. This site uses cookies to help personalise content, tailor your experience and to keep you logged in if you register.
    By continuing to use this site, you are consenting to our use of cookies.