Need help in finding the name of a tune

Discussion in 'Miscellaneous [BG]' started by Armand Karlsen, Jun 1, 2002.


  1. Armand Karlsen

    Armand Karlsen

    Mar 30, 2002
    London UK
    It's a Black Sabbath or an Ozzy tune, I have no idea of the name of the track but I think I have the first part of the bass-line:

    G|------------------------------4~-|
    D|-----------2~-----------2~-4h6---|
    A|-------2-4-----424~--2h2---------|
    E|-0-2-4---------------------------|

    G|--------------------------|
    D|---------2-------2--------|
    A|-------2---4~--24-42~-----|
    E|-0-2-4----------------43~-|


    ~ = sustain
     
  2. Armand Karlsen

    Armand Karlsen

    Mar 30, 2002
    London UK
    I also figured out the first lyrics: "Cyberspace got no place in the real world/Plastic minds got no soul"