1. Please take 30 seconds to register your free account to remove most ads, post topics, make friends, earn reward points at our store, and more!  

Need help in this song (Paul Anka - Papa)

Discussion in 'Tablature and Notation [BG]' started by Sky91, Oct 23, 2013.


  1. Sky91

    Sky91

    Oct 23, 2013
    Hi guys i'm new here so sorry if i'm posting in the wrong section :)

    anyway my band is playing this song next week, and i'm having a hard time arranging the bass lines, my music theory skills is so weak, and i'm not a professional bass player,, so i figured i should post and get some help.

    so anybody can help me with the tabs of this song (standard 4 strings tuning)
    Thanks a lot
     
  2. MichalBros

    MichalBros

    Jan 9, 2012
    Seems to me it goes like this: (0:08-0:24) and verse is alike

    ---------4------4----------------4-----------
    ----2---------2--------2----2-------2--------
    ----------------------------------------------
    ----------------------------------------------

    ---2----2--------------------------2------4----4-----------------
    -------------2---2--------------2---------------------4-4---------
    -----------------------0-0---0-------------------------------2----
    --------------------------------------------------------------------

    --------------------------------4-------------------4---------------
    ----------4----------2---2-------------2----2---------2------------
    ----2-------2---------------------2---------------------------------
    ---------------------------------------------------------------------

    And Chorus (1:10) i think:

    ----------------[-----------------------------------------------------------
    ---2------------[----------5------------------------------------------------
    -------5--3-----[--3--3------5--5----5---5----5-5----6----6---6----6-6----
    ----------------[-----------------------------------------------------------

    ---------------------4------------------]--------------------------------------
    ----------------------------------------]-----------------5--------------------
    -------7----7-------------7---5---3----]-----3----3--------5----5--5---5------
    ----------------------------------------]--------------------------------------

    -------------------------------------------------4---------------
    ----------5----5-----5--------------------4---------4-----------
    --------------------------------2-2---2------------------2-------
    -----------------------------------------------------------------

    [repeat]---------------------------------4--------------
    [ ]-----------5----------------------4-------4------
    [ ]---3---3------3---------------2--------------2----
    [ ]-------------------5---5---------------------------
     
  3. Sky91

    Sky91

    Oct 23, 2013
    Thanks a lot, this will sure help me a lot :)
     

Share This Page

  1. This site uses cookies to help personalise content, tailor your experience and to keep you logged in if you register.
    By continuing to use this site, you are consenting to our use of cookies.