1. Please take 30 seconds to register your free account to remove most ads, post topics, make friends, earn reward points at our store, and more!  

Need help....

Discussion in 'Tablature and Notation [BG]' started by xxfaux_punkxx, Apr 14, 2010.


  1. xxfaux_punkxx

    xxfaux_punkxx

    Mar 18, 2010
    Indiana
    I have another band audition on tuesday and I need to find the tabs for "Every little thing she does is magic" by ra. The version I learned the first time was apparantly the wrong one. So now I gotta find the right one to play. They taught me the first part of it on my first audition so I know enough to find the right tabs... I just can't find them...

    This is what I know of the song...

    G/
    D/
    A/
    E/--33333333-555555555-777777777-9999-10101010

    G/
    D/
    A/
    E/--333333333-555555555-777777777-999999999


    repeat the first two then it goes on into....

    G/
    D/
    A/-------5-5555-------5-5555-
    E/ 5-555--------5-555---------

    and then it goes into the bridge where I have no idea how that goes.
     
  2. Ok, let's try this one, very nice indeed (but I prefer the original by Sting and The Police)

    Be aware that this version is played on a 5 strings because I hear the bassist playing a D and even a C#
    so if you have a 5 strings, tell me and I will adapt with the real notes.
    Here is a 4 strings EADG version.

    We begin with that, with the end a little better :
    Verse :
    Code:
    G|--------|--------|--------|--------|--------|--------|--------|--------|
    D|--------|--------|--------|--------|--------|--------|--------|--------|
    A|--------|--------|--------|--------|--------|--------|--------|--------|
    E|33333333|55555555|77777777|99999999|33333333|55555555|77777777|99990000|
    
    G|--------|--------|--------|--------|--------|--------|--------|
    D|--------|--------|--------|--------|--------|--------|--------|
    A|--------|--------|--------|--------|5--5---5|-5-5----|5--5---5|
    E|33333333|55555555|77777777|99999999|----57--|----5-7-|----57--|
    
    Then the Chorus : (multiple times these bars)
    Code:
    G|--------|--------|
    D|--------|--------|
    A|---4---5|-55555--|
    E|5-5--5--|------3-|
    
    First bridge :
    Code:
    G|--------|--------|--------|--------|--------|--------|--------|--------|--------|--------|--------|--------|
    D|---3----|--------|---3----|--------|--------|--------|--------|--------|--------|--------|--------|--------|
    A|1-----1-|3-----0-|1-----1-|3-----0-|1------1|0------0|--------|0------0|--------|0------0|1------1|0------0|
    E|--------|---1----|--------|---1----|--------|--------|3------3|--------|3------3|--------|--------|--------|
    
    G|--------|--------|--------|--------|--------|--------|--------|--------|--------|--------|--------|
    D|--------|--------|--------|----232-|--------|--------|--------|--------|--------|--------|--------|
    A|1-11----|3-33----|1-11----|3-33---3|1-11----|3-33----|11111111|33333333|5--5---5|-5-5----|5--5---5|
    E|-----1--|-----1--|-----1--|--------|-----1--|-----1--|--------|--------|----57--|----5-7-|----57--|
    
    Chorus comes back here, then second Bridge several times
    Code:
    G|--------|--------|--------|--------|--------|--------|--------|--------|
    D|--------|--------|--------|--------|--------|--------|--------|--------|
    A|1-------|--------|--------|0-------|1-------|--------|35535535|-3535531|
    E|--------|1-------|3-------|--------|--------|1-------|--------|--------|
    
    Then the last time, you finish with this loop :
    Code:
    G|--------|--------|--------|--------|--------|
    D|--------|--------|--------|--------|--------|
    A|35535535|-3535535|-3535535|-3535535|-3535535|and so on
    E|--------|--------|--------|--------|--------|
    
    I think it is pretty accurate, have fun with it :)

    Visit http://basse.over-blog.com for other bass tabs.
    Visitez http://basse.over-blog.com pour d'autres tablatures pour basse.
     

Share This Page

  1. This site uses cookies to help personalise content, tailor your experience and to keep you logged in if you register.
    By continuing to use this site, you are consenting to our use of cookies.