Need opinions about Californication

Discussion in 'Tablature and Notation [BG]' started by jani_bjorklund, Dec 6, 2002.


  1. jani_bjorklund

    jani_bjorklund

    May 22, 2002
    Finland
    I tabbed Californication for a friend. I don't usually listen to RHCP but agreed to tab it. Is this anywhere in the ballpark?

    red_hot_chili_pepper/californication.btab

    TablEdited by Jan Bjorklund
    Tuning : E A D G Time Signature: 4/4
    red_hot_chili_pepper/californication.btab

    TablEdited by Jan Bjorklund
    Tuning : E A D G Time Signature: 4/4


    |------------------------9---------------9-------7h9p7-----------|
    |--------7-----------------------------------------------10------|
    |0---------------------------------------------------------------|
    |----------------------------------------------------------------|


    |------------------------7---------------7-----------------------|
    |--------10--------------------------------------10--------------|
    |8---------------------------------------------------------------|
    |----------------------------------------------------------------|


    |------------------------9---------------9-------7h9p7-----------|
    |--------7-----------------------------------------------10------|
    |0---------------0-----------------------------------------------|
    |----------------------------------------------------------------|


    |------------------------10--------------10------7---------------|
    |--------10------------------------------------------------------|
    |8---------------------------------------------------------------|
    |----------------------------------------------------------------|


    |------------------------9---------------9-------7h9p7-----------|
    |7-------------------------------------------------------10------|
    |0---------------------------------------------------------------|
    |----------------------------------------------------------------|


    |------------------------7---------------7-----------------------|
    |--------10--------------------------------------10--------------|
    |8---------------------------------------------------------------|
    |----------------------------------------------------------------|


    |------------------------9---------------9-------7h9p7-----------|
    |--------7-----------------------------------------------10------|
    |0---------------------------------------------------------------|
    |----------------------------------------------------------------|


    |------------------------10--------------10------7---------------|
    |----------------------------------------------------------------|
    |8---------------------------------------------------------------|
    |----------------------------------------------------------------|


    |------------------------9---------------9-------7h9p7-----------|
    |7-------------------------------------------------------10------|
    |0---------------------------------------------------------------|
    |----------------------------------------------------------------|


    |------------------------7---------------7-----------------------|
    |--------10--------------------------------------10--------------|
    |8---------------------------------------------------------------|
    |----------------------------------------------------------------|


    |------------------------9---------------9-------7h9p7-----------|
    |7-------------------------------------------------------10------|
    |0---------------------------------------------------------------|
    |----------------------------------------------------------------|


    |------------------------10--------------10------7---------------|
    |--------10------------------------------------------------------|
    |8---------------------------------------------------------------|
    |----------------------------------------------------------------|


    |----------------------------------------------------------------|
    |10------------------------------12------------------------------|
    |--------------------------------10------------------------------|
    |8---------------------------------------------------------------|


    |----------------------------------------------------------------|
    |10--------------10--------------12--------------12--------------|
    |8---------------8-----------------------------------------------|
    |--------------------------------10--------------10--------------|


    |------------------------9---------------9-------7h9p7-----------|
    |--------7-----------------------------------------------10------|
    |0---------------------------------------------------------------|
    |----------------------------------------------------------------|


    |------------------------7---------------7-----------------------|
    |--------10--------------------------------------10--------------|
    |8---------------------------------------------------------------|
    |----------------------------------------------------------------|


    |------------------------9---------------9-------7h9p7-----------|
    |--------7-----------------------------------------------10------|
    |0---------------------------------------------------------------|
    |----------------------------------------------------------------|


    |10----------------------10--------------10------7---------------|
    |--------10------------------------------------------------------|
    |8-------8-------------------------------------------------------|
    |----------------------------------------------------------------|


    |------------------------9---------------9-------7h9p7-----------|
    |--------7-----------------------------------------------10------|
    |0---------------------------------------------------------------|
    |----------------------------------------------------------------|


    |------------------------7---------------7-----------------------|
    |--------10--------------------------------------10--------------|
    |8-----------------------8---------------8-----------------------|
    |----------------------------------------------------------------|


    |------------------------9-----------------------9p--7-----------|
    |7---------------7---------------------------------------10------|
    |----------------------------------------------------------------|
    |----------------------------------------------------------------|


    |----------------------------------------10------7---------------|
    |--------10--------------10--------------------------------------|
    |8---------------------------------------------------------------|
    |----------------------------------------------------------------|


    |----------------------------------------------------------------|
    |10------------------------------12------------------------------|
    |--------------------------------10------------------------------|
    |8---------------------------------------------------------------|


    |----------------------------------------------------------------|
    |10--------------10--------------12--------------12--------------|
    |8---------------8-----------------------------------------------|
    |--------------------------------10--------------10--------------|


    Created with TablEdit http://www.tabledit.com/
     
  2. kaboom133

    kaboom133

    Oct 19, 2001
    Latrobe PA
    honestly, i would have to say that's not that close. sorry.
     
  3. Matt Till

    Matt Till

    Jun 1, 2002
    Edinboro, PA
    oh man, you don't even wanna know my opinions of Californication.











    But your tab is terrible, no offense.
     
  4. Matt Till

    Matt Till

    Jun 1, 2002
    Edinboro, PA
    the tabs on all the tab sites are correct, just look it up.