Dismiss Notice

Psst... Ready to join TalkBass and start posting, make new friends, sell your gear, and more?  Register your free account in 30 seconds.

Need Tab for Jolpin's "Move Over"

Discussion in 'Tablature and Notation [BG]' started by shakeyeraz, Jan 19, 2003.


  1. shakeyeraz

    shakeyeraz

    Aug 25, 2002
    Connecticut
    I'd like to nail this as close as possible to the original. Tab or music is OK. All help is appreciated. TIA
     
  2. jani_bjorklund

    jani_bjorklund

    May 22, 2002
    Finland

    Joplin_Janis/Move_Over.btab

    Basstab by Jan Bjorklund, Finland;
    jani_bjorklund@yahoo.se
    You are welcome to request for basstabs!
    Bienvenidos a pedirme transcripciones para el bajo!
    Fingering and positions as suggested by TablEdit.

    TablEdited by Jan Bjorklund for Barch
    Tuning : E A D G Time Signature: 4/4



    |--------------------------------|------------------------10--7---|
    |--------------------------------|--------------------10----------|
    |--------------------------------|----------------10--------------|
    |--------------------------------|--------------------------------|


    |------------10------10------7---|--------------------------------|
    |--------------------------------|--------------------------------|
    |--------------------------------|5-------------------------------|
    |--------------------------------|--------------------------------|


    |--------------------------------|--------------------------------|
    |--------------------------------|--------------------------------|
    |----------------------------3---|5-------------------------------|
    |--------------------------------|--------------------------------|


    |--------------------------------|--------------------------------|
    |--------------------------------|--------------------------------|
    |----------------------------5---|5-------------------------------|
    |--------------------------------|--------------------------------|


    |----------------------------10--|------------------------10------|
    |------------------------10------|----12--12----------10----------|
    |--------------------12----------|----------------12--------------|
    |--------------------------------|----------------------------10--|


    |--------------------------------|--------------------------------|
    |--------------------5-------5---|6-------5-------5-----------5---|
    |------------8-------------------|------------8-----------5-------|
    |--------------------------------|--------------------------------|


    |--------------------------------|7-------5-------5---5-----------|
    |------------------------5-------|------------7-------------------|
    |----8-----------8---------------|--------------------------------|
    |--------------------------------|--------------------------------|


    |--------------------------------|--------------------------------|
    |----------------3-------5-------|6---5-------3-------------------|
    |------------5-------------------|--------------------5-------3---|
    |--------------------------------|--------------------------------|


    |--------------------------------|--------------------------------|
    |----------------------------3---|------------------------3-------|
    |------------------------3-------|----5---5-----------3-------5---|
    |----5---------------5-----------|----------------5---------------|


    |--------------------------------|--------------------------------|
    |------------3-------5-------3---|6-------5-------5-----------5---|
    |--------------------------------|------------8-----------5-------|
    |--------------------------------|--------------------------------|


    |--------------------------------|7-------5-------5---5-----------|
    |------------------------5---5---|------------7---------------3---|
    |----8-----------8---------------|--------------------------------|
    |--------------------------------|--------------------------------|


    |--------------------------------|--------------------------------|
    |----------------3-------5-------|6---5-------3-------------------|
    |------------5-------------------|--------------------5-------3---|
    |--------------------------------|--------------------------------|


    |--------------------------------|--------------------------------|
    |--------------------------------|------------------------3-------|
    |--------------------------------|--------------------3-------5---|
    |----5---------------------------|----------------5---------------|


    |--------------------------------|--------------------------------|
    |--------------------------------|--------------------------------|
    |----------------5-------6-------|7-------7-------7-------7---5---|
    |--------------------------------|--------------------------------|


    |--------------------------------|--------------------------------|
    |----------------------------5---|5-------5-------5-------5---5---|
    |7-------7-------7-------7-------|--------------------------------|
    |--------------------------------|--------------------------------|


    |----------------4---------------|--------------------------------|
    |5-------5-----------7---5---4---|--------------------------------|
    |--------------------------------|7-------7-------7-------7---5---|
    |--------------------------------|--------------------------------|


    |--------------------------------|--------------------------------|
    |------------------------7---5---|5-------5-------5-------5---4---|
    |7-------7-------7---------------|--------------------------------|
    |--------------------------------|--------------------------------|


    |--------------------------------|--------------------------------|
    |5---------------------------2---|7-------7-------7-------7---5---|
    |----2-------3-------4---5-------|--------------------------------|
    |--------------------------------|--------------------------------|


    |------------9-------9-----------|--------------------------------|
    |7-------7---------------7---5---|--------------------------------|
    |--------------------------------|3-------------------------------|
    |--------------------------------|--------------------------------|


    |--------------------------------|--------------------------------|
    |--------------------------------|--------------------------------|
    |3---3-------2-------------------|1---1-------0-------------------|
    |--------------------------------|--------------------------------|


    |--------------------------------|7-7---7-6---5-5---4-4---3-2-0---|
    |--------------------------------|--------------------------------|
    |5-------5-------5-------5-------|--------------------------------|
    |--------------------------------|--------------------------------|

    (S O L O)
    |--------------------------------|--------------------------------|
    |--------------------------------|--------------------------------|
    |5-------5-------5-------5---3---|5-------5-------5-------5---3---|
    |--------------------------------|--------------------------------|

    You can find the whole song at:
    http://www.olga.net/dynamic/browse.php?local=main/j/joplin_janis/move_over.btab