Psst... Ready to join TalkBass and start posting, make new friends, sell your gear, and more?  Register your free account in 30 seconds.

Need Tab..Nathan East w/ Phil Collins

Discussion in 'Tablature and Notation [BG]' started by scott_barrett, Apr 11, 2004.


  1. Anyone have the delicious groove from "Something Happened on the way to Heaven"? I'd like to study that bass line and see if those are arpeggios that Nathan is using?

    Thanks!
    Scott
     
  2. Finger Blister

    Finger Blister

    Jul 8, 2003




    |---------|------------|---------|-----|
    |---------|------------|---------|-----|
    |---------|------------|---------|-----|
    |---------|-----3--3---|---------|-----|


    |---------|---------|---------|---------------|
    |---------|---------|---------|---------------|
    |---------|---------|---------|---------------|
    |---------|---------|---------|-----4-1-4-6---|


    |----------------|-----------------|-----------------|
    |----------------|-----------------|-----------------|
    |----------------|------1----------|-----3-1-------1-|
    |-6--8--4-1-4-6--|-6-1----4-1-4-6--|-6-1------4-1----|


    |--------------------|------------------|-----------------|
    |--------------------|------------------|-----------------|
    |-3--1--1------------|-----3-1-------1--|-1---3-----------|
    |-----------4-1-4-6--|-6-1------4-1-----|---1----4-1-4-6--|


    |------------------|----------------|-----------------|
    |------------------|----------------|-----------------|
    |------------------|----------------|-----3-1------1--|
    |-6--8-6--4-1-4-6--|-6--8--4-1-4-6--|-6-1-----4-1-----|


    |------------------|---------------|-------------|-------------------|
    |------------------|---------------|-------------|-------------------|
    |-1----1-----------|---------------|-3-----------|-----3-1-----------|
    |---1-----4-1-4-6--|-6--4--3-1--1--|------4-1-4--|-6-1-------1-4-6---|


    |------------------|-------------------|-------------------|
    |------------------|-------------------|-------------------|
    |------------------|-----3-1-----------|-------------------|
    |-6--8-6--4-1-4-6--|-6-1------4-1-4-6--|-6--6--6--4-1-4-6--|


    |------------------|----------------|--------------------|
    |------------------|----------------|--------------------|
    |-----3-1-------1--|-1--------------|-----3-1------------|
    |-6-1------4-1-----|---1---4-1-4-6--|-6-1------4-1-4-6---|


    |--------------|------------------|-------------------|----------------|
    |--------------|------------------|-------------------|----------------|
    |-----------1--|-1---3-1----------|-----3-1-----------|----------------|
    |---8--4-1-----|---1-----4-1-4-6--|-6-1------4-1-4-6--|-6--4--3-1--1---|


    |--------------|------------------|-----------------|----------------|
    |--------------|------------------|----------1-3-5--|---5------------|
    |-3------------|-----3-1-------1--|-1---3-1---------|----------------|
    |-------1-4-6--|-6-1------4-1-----|---1-------------|------6-8-10-11-|


    |-----------------|-----------------|---------------|-----------------|
    |-----------------|-----------------|--------1-3-5--|--5-3-1-----0-1--|
    |---------6-8-10--|--10-8-6-----5-3-|-(3)-----------|---------1-------|
    |---10-8----------|----------6------|---------------|-----------------|


    |-------------0---|---------------------|-------------------|
    |--0--------1---3-|-(3)--1---------0----|-------------------|
    |----3-1--3-------|---------3----1----3-|-(3)--1------------|
    |-----------------|-----------3---------|---------4-1-4-6---|


    |------------------|---------------|--------------------|
    |------------------|---------------|--------------------|
    |------1-----------|---------------|-1---3-1------------|
    |-6-1-----4-1-4-6--|-6--8-6--4-1---|---1------4-1-4-6---|


    |--------------------|-------------------|-----------------|
    |--------------------|-------------------|-----------------|
    |--------------------|-----3-1-----------|-----3-----------|
    |-6--6--6---4-1-4-6--|-6-1------4-1-4-6--|-6-1----4-1-4-6--|


    |-------------------|------------------|-----------------|
    |-------------------|------------------|-----------------|
    |-----3-1-----------|----3-1-----------|-----------------|
    |-6-1------4-1-4-6--|--1------4-1-4-6--|-6--8--4-1-4-6---|


    |-------------------|--------------|--------------|
    |-------------------|--------------|--------------|
    |-----3-1-----------|--------------|-3---------1--|
    |-6-1------4-1-4-6--|-6--4--3---1--|------4-1-----|


    |------------------|-------------------|-----------------|
    |------------------|-------------------|-----------------|
    |-1--3-1-----------|-----3-1-----------|-----------------|
    |---------4-1-4-6--|-6-1------4-1-4-6--|-6---6--4-1-4-6--|


    |-----------------|-------------|-------------|-----------------|
    |----------1-3-5--|---5---------|----------5--|--5-3-1-----0----|
    |-----3-1---------|---------5-6-|-------6-----|---------1----3--|
    |-6-1-------------|------6------|----8--------|-----------------|


    |---------------|----------------|-------------0---|-----------------------|
    |--------1-3-5--|--5-3-1---------|-----------1---3-|-(3)--1---------0------|
    |-(3)-----------|---------1-3-5--|--5-3-1--3-------|---------3----1---1-3--|
    |---------------|----------------|-----------------|-----------3-----------|


    |----------------|----------------|---------------|-----------------|
    |---------1-3-5--|---5-3----------|--------1-3-5--|--5-3----0--0----|
    |-(3)--1---------|--------1-3-5-6-|---5-3---------|-------1------3--|
    |----------------|----------------|---------------|-----------------|


    |---------------|-----------------|-------------0---|-----------------------|
    |--------1-3-5--|--5-3-1----------|-----------1---3-|-(3)--1---------0------|
    |-(3)-----------|---------1-3-5-6-|--5-3-1--3-------|---------3----1---1-3--|
    |---------------|-----------------|-----------------|-----------3-----------|


    |---------------------|-------------------------|
    |---------------------|-------------------------|
    |-(3)--1--------------|-------------------------|
    |---------1--1--1--1--|-1--1--1--1--3--3--3--3--|


    |-------------------------|-----------------------|
    |-------------------------|-----------------------|
    |-------------------------|-----------3--3--3--3--|
    |-3--3--3--3--4--4--4--4--|-4--4---4--------------|


    |---------------------|---------------------|
    |---------------------|---------------------|
    |-3---1---------------|---------------------|
    |---------1--1--1--1--|-1--1--1---3---3--3--|


    |-------------------------|-----------------------|
    |-------------------------|-----------------------|
    |-------------------------|-----------------------|
    |-3--3--3--3--4--4--4--4--|-4--4--4---6--6--6--6--|


    |----------------|---------|---------|-----|
    |----------------|---------|---------|-----|
    |----------------|---------|---------|-----|
    |-6--6--6---6----|---------|---------|-----|


    |---------|------------|---------|-----|
    |---------|------------|---------|-----|
    |---------|------------|---------|-----|
    |---------|-3--3-------|---------|-----|


    |---------|---------|---------|------------------|
    |---------|---------|---------|------------------|
    |---------|---------|---------|--------------3---|
    |---------|---------|---------|-4-1-4-6--6-1-----|


    |----------------|-------------------|---------------|------------------|
    |----------------|-------------------|---------------|------------------|
    |-------------3--|--------------3-1--|------------3--|------1--1---3-1--|
    |--1-4-6--6-1----|-4-1-4-6--6-1------|-4--4-6---1----|-4-1-------1------|


    |-------------------|-----------------|------------|
    |-------------------|-----------------|------------|
    |--------------3-1--|------1--1-------|-------3----|
    |-4-1-4-6--6-1------|-4-1--------4--3-|-1--1-------|


    |-------------------|---------------------|----------------------|
    |-------------------|---------------------|----------------------|
    |--------------3--1-|-----------1--1----1-|-----------1--1----1--|
    |-4-1-4-6--6-1------|--4-1-(1)------------|--4-1-(1)-------------|


    |-----------------------|-------------------|---------------------|
    |-----------------------|-------------------|---------------------|
    |-----------------------|--6-8-(8)------10--|------5-6-(6)----5-3-|
    |--4-1-(1)-4-6--6---8-6-|-------------------|--6------------------|


    |------0----0-(0)-----|------------------|-------------------------|
    |--1--------------3-1-|----0--0----------|--1-3-(3)-5----5-(5)-3---|
    |---------------------|--1------3-(3)----|-------------------------|
    |---------------------|------------------|-------------------------|


    |----------------------------|---------------------|-----------------------|
    |-----------1-(1)--0-(0)-----|----1-(1)-----1------|----0-(0)--------------|
    |--1-3-(3)---------------3-1-|--3--------------3---|--1-------1-3-(3)---1--|
    |----------------------------|-------------------3-|-----------------------|


    |-------------------|-----------------------------|---------------------------|
    |--1-3-(3)-5-----5--|-----------------------------|---------------------------|
    |-------------------|-----------------------------|--6-8-(8)-10----10-(10)-8--|
    |-------------------|--6-8-(8)-10-11-(11)----10-8-|---------------------------|


    |-----------------|-----------------------|-----------------------------------|
    |-----------------|--1-3-(3)-5----5-(5)---|-----------------------------------|
    |------5-3-(3)----|-----------------------|-----------------------------------|
    |--6--------------|-----------------------|--6-8-(8)-10-11-(11)--10-(10)-8-6--|


    |--------------------------|-----------------------|---------------------|
    |----------5-3-(3)--1------|----0-(0)--------------|--1-3-(3)-5-----5-3--|
    |----6-(6)-------------3---|--1-------1-3-(3)---1--|---------------------|
    |--8---------------------3-|-----------------------|---------------------|


    |---------------------|------------------------|-----------------|
    |------0-1-(1)----0---|--1-3-(3)-5----5-(5)-3--|-----------------|
    |--1----------------3-|------------------------|--1----3-(3)-----|
    |---------------------|------------------------|-----------------|


    |-------------------------|-----------------------------|
    |--1-3-(3)-5----5-(5)-3-1-|-----------------------------|
    |-------------------------|--1-3-(3)-5-6-(6)--5-(5)-3-1-|
    |-------------------------|-----------------------------|


    |--------------------------|
    |----1-(1)--3-(3)--1-------|
    |--3------------------3----|
    |-----------------------3--|


    |-----------------------|-------------------|---------------------|
    |----0-(0)--------------|--1-3-(3)-5-----5--|---------------------|
    |--1-------1-3-(3)---1--|-------------------|-------6-(6)----5-3--|
    |-----------------------|-------------------|--6------------------|


    |------0----0-(0)----|------------------|--------------------------|
    |--1--------------3--|----0--0----------|--1-3-(3)-5----5-(5)-3-1--|
    |--------------------|--1------3-(3)----|--------------------------|
    |--------------------|------------------|--------------------------|


    |-----------------------------|
    |-----------------------------|
    |--1-3-(3)-5-6-(6)--5-(5)-3-1-|
    |-----------------------------|


    |----------0-------------|------------------------|
    |----1-(1)---3-(3)-------|----0-(0)---------------|
    |--3-----------------3---|--1-------1-3-(3)---1---|
    |----------------------3-|------------------------|


    |---------|---------|---------|-----|
    |---------|---------|---------|-----|
    |---------|---------|---------|-----|
    |---------|---------|---------|-----|


    |---------|---------------|
    |---------|---------------|
    |---------|---------------|
    |---------|---3--3--3-----|