Dismiss Notice

Psst... Ready to join TalkBass and start posting, make new friends, sell your gear, and more?  Register your free account in 30 seconds.

Neede: Pixies

Discussion in 'Tablature and Notation [BG]' started by I am Domokun, Mar 30, 2005.


  1. I'm Amazed and Tony's Theme, if anybody has these or would be willing to tab them out, for me, that'd be swell. :bassist:
     
  2. DaftCat

    DaftCat

    Jul 26, 2004
    Medicine Hat
    Amazed

    ------------------------------------------------------------------------
    ------------------------------------------------------------------------
    --------------------3-3---2-2---0-0--------------------3-3---2-2--0--0--
    ----3-3--2-2--0-0---------------------3-3---2-2--0-0--------------------

    ------------------------------------------------------------------------
    ------------------------------------------------------------------------
    --------------------3-3---2-2---0-0--------------------3-3---2-2--0--0--
    ----3-3--2-2--0-0---------------------3-3---2-2--0-0--------------------



    ---------------------------------------------------------------------
    ----2-2--------------------------------------------------------------
    ----------2-2-----3-3----0----------------------------------------------
    ----------------------------------------------------------------------



    -----------------------------------------------------------------------
    ----2-2-2-2-2-2-2-2-2-2-2-2-2-2-2-2------------------------------------
    ----------------------------------------2-2-2-2-2-2-2-2-2-2-2-2-2-2-2--
    -----------------------------------------------------------------------

    --------------------------------------------------------------------------
    --------------------------------------------------------------------------
    --3-3-3-3-3-3-3-3-3-3-3-3-3-3-3-3----0-0-0-0-0-0-0-0-0-0-0-0-0-0-0-0-
    --------------------------------------------------------------------------


    Hope this helps,