Nite Club transcription

Discussion in 'Tablature and Notation [BG]' started by michele, Oct 13, 2004.


  1. michele

    michele Supporting Member

    Apr 2, 2004
    Italy
    I'm searching the transcription for Tribal Tech's song "Nite Club" ... anyone?
     
  2. mikey_dee

    mikey_dee

    Oct 19, 2004
    Verse

    G----------------------------7-7-----------------
    D------------------------------------------------
    A-7---------7---5---5---7----------5-----------7-
    E---7-0-5/7---7---7---7--0-0-----7---7--0--5/7---

    G------------------|-------12---11---7---8---
    D------------------|-------------------------
    A---5---5---7------|----------9----6---6-----
    E-7---7---7---0----|-6/10--------------------

    G-----------------
    D-----4---5---6---
    A-----------------
    E-0-2---3---4-----

    And yet another verse

    G-------------------------------
    D-7-7-------7-----4-4-5-5-6-6---
    A-----9-7-9---5-5---------------
    E-------------------------------

    G-------------------------------
    D-7-7-------7-------------------
    A-----9-7-9---5-5-4-4-5-5-6-6---
    E-------------------------------

    G---------------------------------
    D-7-7-------7-----4-4-5-5-6-6-7-7-
    A-----9-7-9---5-5-----------------
    E---------------------------------

    and don't forget this verse!

    G---------------------------------
    D---------------------------------
    A-5-3-3-2-2-1-0-----5---6-7-------
    E---------------7-7---7-----------
     
  3. michele

    michele Supporting Member

    Apr 2, 2004
    Italy
    Mikey,
    I read music in standard notation but (funny) I really suck with tablatures!! Anyway, thanks a lot ... I'll try to do something good with it!
     
  4. buy willis' transcription book. its only around the price of a cd.