Dismiss Notice

Psst... Ready to join TalkBass and start posting, make new friends, sell your gear, and more?  Register your free account in 30 seconds.

No Woman No Cry....Bob Marley

Discussion in 'Tablature and Notation [BG]' started by scott_barrett, Oct 26, 2004.


  1. Hey all!

    Need help with the bridge to this song. In the part "Everythings going to be alright now...." Does anyone have the correct notes, tab, chords, sheet music or anything for this? I am working of the live version, but everything I have found on the net is not close.

    Any help is greatly appreciated!
    Scott
     
  2. Try This

    G-------------------------------------------------------
    D---5--5----------------------------------5--5----------
    A--------5----3----3--2---2--2-3---------------5----3--
    E-----------------------------------3--1----------------


    G-------------------------------------------------------
    D-------------------------------------------------------
    A----3---2----2--3--3----3-----------------------------
    E----------------------------3---1----------------------

    These are the main two riffs that Aston uses you could basically improvise make sure though that you feel his rhythm pattern. I wish there was a programme which you can use to write in notation.
    Man I love his lines I even went to the trouble of learning all of Bob's songs
    Anyway Enjoy :bassist: