Norwegian Wood

Discussion in 'General Instruction [BG]' started by Paolo, Jan 30, 2002.


  1. Hi !
    Anyone have tabs or partitures about "Norwegian Wood" played by Vic Wooten ?

    Thanks

    Paolo
     
  2. Yvon

    Yvon Supporting Member

    Nov 2, 2000
    Montreal, Canada
    moved to GI
     
  3. Christopher

    Christopher

    Apr 28, 2000
    New York, NY
    The harmonics with bass accompaniment:


    --3.1------------3.1-------|-3.1----------
    ------------2.1-------2.7--|--------------
    ---------------------------|--------------
    ------3--3-----------------|------3--3---


    -------------3.9---|-5-------------------------
    --3.1--2.7---------|------------------2.7------
    -------------------|------------3.1--------3.1-
    -------------------|-----3--3------------------


    -------------------|
    --5----------------|
    -------------------|
    -----3--3----3-----|


    Stay in g min and G major for the rest of it.