Psst... Ready to join TalkBass and start posting, make new friends, sell your gear, and more?  Register your free account in 30 seconds.

Open My eyes

Discussion in 'Tablature and Notation [BG]' started by Octopikiller, Aug 30, 2003.


  1. Octopikiller

    Octopikiller

    Sep 7, 2002
    San Diego
    CAn anyone help me out on how to play "Open my Eyes" by The Nazz? Or at least the riff that comes in right after the intro? If you can help, Thanks a lot.
     
  2. jani_bjorklund

    jani_bjorklund

    May 22, 2002
    Finland
    Maby so?


    Open My Eyes
    Nazz
    TablEdited by Jan Bjorklund
    Tuning : E A D G Time Signature: 4/4


    |------------------------3---4---|----7---8---9-----------9/--6---|
    |7---4---5---6-------7-----------|--------------------------------|
    |--------------------------------|--------------------------------|
    |--------------------------------|--------------------------------|


    |------------------------3---4---|----7---8---9-----------9-------|
    |7---4---5---6-------7-----------|----------------------------7---|
    |--------------------------------|--------------------------------|
    |--------------------------------|--------------------------------|


    |------------------------3---4---|----7---8---9-----------9---7---|
    |7---4---5---6-------7-----------|--------------------------------|
    |--------------------------------|--------------------------------|
    |--------------------------------|--------------------------------|


    |------------------------3---4---|----7---8---9-------------------|
    |7---4---5---6-------7-----------|--------------------------------|
    |--------------------------------|--------------------------------|
    |--------------------------------|--------------------------------|


    Created with TablEdit http://www.tabledit.com/