Psst... Ready to join TalkBass and start posting, make new friends, sell your gear, and more?  Register your free account in 30 seconds.

Peace Sells.... - Megadeth Intro

Discussion in 'Tablature and Notation [BG]' started by Bass_x_Masta, Feb 15, 2006.


  1. Bass_x_Masta

    Bass_x_Masta

    Feb 14, 2006
    |------------------------------------|
    |--------5--------5-7-------5-------|
    |-7-5-7------7-5------7-5-7--------|
    |----------0------------------0-6-5-|
     
  2. willkt6

    willkt6

    Sep 27, 2005
    |------------------------------------|
    |--------5--------7-8-------5-------|
    |-7-5-7------7-5------7-5-7--------|
    |----------0------------------0-6-5-|

    i think its 7-8 not 5-7
     
  3. morf

    morf Banned

    Feb 17, 2006
    Yep, its 7-8.