Psst... Ready to join TalkBass and start posting, make new friends, sell your gear, and more?  Register your free account in 30 seconds.

Please Help

Discussion in 'Tablature and Notation [BG]' started by rygelxvi, Jul 5, 2003.


  1. rygelxvi

    rygelxvi

    Jan 6, 2003
    I need the tab for Franklins Tower by the Grateful Dead.
     
  2. All I do for Franklin's Tower is play A G and D I think are the chords. I have been messing aroung with it though trying to come up with something new.
     
  3. poppamies

    poppamies

    Dec 15, 2002
    This is how I hear it


    greatful_dead/franklins_tower.btab

    TablEdited by Jan Bjorklund
    Tuning : E A D G Time Signature: 4/4


    |3-------3-----------3-----1-----|--------------------------0-----|
    |------------------------------3-|1-------1-----------1---------1-|
    |--------------------------------|--------------------------------|
    |--------------------------------|--------------------------------|

    |3-------3-----------3-----1-----|--------------------------------|
    |------------------------------3-|1-------1-----------1-----3---3-|
    |--------------------------------|--------------------------------|
    |--------------------------------|--------------------------------|

    |--------------------3-----1---1-|--------------------------------|
    |--------------------------------|1-------------------1-----1---3-|
    |1-------1-----------------------|----1---3-----------------------|
    |--------------------------------|--------------------------------|

    |--------------------3-----1-----|--------------------1-1---1---1-|
    |--------------------------------|1-------1-----------------------|
    |1-------1-----------------------|--------------------------------|
    |--------------------------------|--------------------------------|


    Created with TablEdit http://www.tabledit.com/