Psst... Ready to join TalkBass and start posting, make new friends, sell your gear, and more?  Register your free account in 30 seconds.

Politician - Cream

Discussion in 'Tablature and Notation [BG]' started by moptoptony, Aug 7, 2003.


  1. Okay, I just figured this out, it's incomplete, and it's my first tab (of pre-recorded music), so just bear with me. I'll get the rest later:

    Main Riff
    G|------------------------------
    D|-------3-h4-------------------
    A|-3-h4-------3h4p3h4-----------
    E|--------------------------3-h4

    Sometimes goes to:
    G|-------3-h4-------------------
    D|-3-h4-------3h4p3h4-----------
    A|--------------------------3-h4
    E|------------------------------