Dismiss Notice

Psst... Ready to join TalkBass and start posting, make new friends, sell your gear, and more?  Register your free account in 30 seconds.

Post your favorite *original* slap tab

Discussion in 'Tablature and Notation [BG]' started by Matt R Miller, Jun 13, 2003.


  1. Matt R Miller

    Matt R Miller

    Apr 27, 2003
    Wisconsin
    Let's see what kind of slap lines our fellow TB'ers have written.

    heres a quickie:

    G----------------------------------
    D--------------5h6p5-----------7---
    A---------5h7----------8--5h7-----5
    E----------------------------------
     
  2. Mike Money

    Mike Money Banned

    Mar 18, 2003
    Bakersfield California
    Avatar Speakers Endorsing Hooligan
    G:-----------------------------------------------
    D:--------3----------------3---------------------
    A:----------2----------------2-------------------
    E:-1-*-*------0-3-3-1-*-*------0-3^--------------
     
  3. kato_kaylin

    kato_kaylin

    Jan 14, 2003
    G-----------
    D------3-5-6~
    A---3h5-----
    E-00--------

    D------3-5-0~
    A---3h5-----
    E-00--------
    simple, but thats how i like em
     
  4. Matt Till

    Matt Till

    Jun 1, 2002
    Edinboro, PA
    Alright kids here's the thing. With us the viewer of your tabZ we have no clue how your slap songs sound. I mean we know the notes, but we don't know the timing or tempo... example...




    |------x--------21--------24---|
    |------------9----13----9----3-|
    |--------5-7-------------------|
    |0-x-x--x---------0-2-x-3---1--|




    Impressive huh? Well I forgot to tell you, the tempo is 13bpm and every note is a whole note. :meh:

    Here's an idea, how about an "original slap recording" thing in recordings and accompanied shall be a tab.

    They use to have these competition things at www.basswars.com but I think that site no longer exsists.
     
  5. Dave Castelo

    Dave Castelo

    Apr 19, 2000
    Mexico

    Write music? in tab?

    lol