Psst... Ready to join TalkBass and start posting, make new friends, sell your gear, and more?  Register your free account in 30 seconds.

Primus:Frizzle Fry

Discussion in 'Tablature and Notation [BG]' started by ScottyBoomBotty, Jul 13, 2002.


  1. does anybody have the exact tabs to this song? i have most of it exactly right (verse and some other parts) but i dont have a few, i have seen a lot of stuff thats way off. email me if you want the parts i know mxpx4511@hotmail.com
     
  2. ZoSoIV

    ZoSoIV

    Mar 28, 2007
    Massachusetts
    SUPERBUMP
    (found via search, no replies)
    ANYONE know this?
     
  3. Jonah

    Jonah Lord of the String

    Jan 19, 2007
    Vantaa, Finland
    I think I have that song nailed down pretty well, tell me what parts do you guys need and I'll see if I can help you out.

    -Jonah
     
  4. Jonah

    Jonah Lord of the String

    Jan 19, 2007
    Vantaa, Finland
    Got bored

    The riffs are in random order, but this gives you an idea of the song. The D-string stuff is popped, chords are strummed. The fast part is just Les ****ing around, play something in D. The 4-5-6 in E-string is slapped in the "heavy" part. In this tab there is not the correct number of notes at the fast part or the part in the beginning, but you get the idea of how it's played anyway.

    The high d's in the beginning sound best if tapped at the 19th fret as artificial harmonics (place left hand finger at the 7th fret of g-string and tap lightly on the 19th fret of g-string). Same applies the high d#'s (8th and 20th fret).


    G||----19-19-19-19---19-19-19-19-20-20-19---19-19-|--19-20-20-20-19---19-|
    D||--0-------------0----------------------0-------|-----------------0----|
    A||-----------------------------------------------|----------------------|
    E||-----------------------------------------------|----------------------|



    --7p5p0-2p0-7-|--19-19-19-20-20-20-19-19-19-|
    --0-----0---0-|---0-----------------0-------|
    --------------|-----------------------------|
    --------------|-----------------------------|



    ---------------8---------------------------7-|
    --7-0--------0-8-0--------0-7-0----------0-7-|
    ---------------6---------------------------5-|
    ------5/17\7-------5/17\7-------5/17\7-------|



    --------------------------8--------------------------5-7-----|
    --0--------0-7-0--------0-8-0---------0-7-0--------0-5-7-----|
    --------------------------6--------------------------3-5-----|
    ----5/17\7-------5/17\7-------5/17\7--------5/17\7-----------|



    --7-------5-7-------6-7-------7-7-|--------8-9-8-|
    --7-------5-7-------6-7-------7-7-|--------8-9-8-|
    --5-------3-5-------4-5-------5-5-|--------6-7-6-|
    ----4-5-6-----4-5-6-----4-5-6-----|--4-5-6-------|



    --1-----------------1---------------1/4-------------|------4-----------------|
    ----1-1h2p1---1---1---1-1h2p1---1---1/4-4-4h5p4---4-|----4---4-4h5p4---4---4-|
    ------------3---2-------------3---2-------------6---|--5-------------6---5---|
    ----------------------------------------------------|------------------------|



    --------------------------------------------------------------------|
    --------------------------6-6-6-6---6-7-7-7-7-8-8-8-8-8-------------|
    --5-5-5-5-5-5-5-5-5-5-5-5-------------------------------5-5-5-5-5-5-|
    --------------------------------------------------------------------|



    ----5h7---------------5h7-------------------------------------------|
    ----5h7---------------5h7-------------------------------------------|
    --5-----5-5-5-5-5-5-5-----5-5-5-5---5-5-5-5-------------------5-5-5-|
    --------------------------------------------3-3-3-4-4-4-5-5-5-------|



    ----------....1-------------------||
    ----------....--1-1-2-1---1---1---||
    --5-5-5-5-....----------3---2-----||
    ----------....------------------4-||


    -Jonah
     
  5. ZoSoIV

    ZoSoIV

    Mar 28, 2007
    Massachusetts
    ^Interesting. So far I had assumed the beginning went

    (D) 6p5-0-- - - -
    (A) - - - - - -5 -
    (E) - - - -3\5 - -

    That sounds right to me, and I dont have as many frets as you have posted haha.
    Obviously this is only a small portion of the song, but its as far as I can go. Actually, instead of hitting chords, you can hit the 3rd and the 6th frets on the A string following this (on alternate riffs). Once again, might be wrong, but sounds right, and is a hell of a lot easier! lol

    Thanks for that though, other than the 20th fret stuff I'll try to add to my version with the rest of yours. Heres hoping they meld well!
     
  6. this is how i do it


    G-----------------8-------------------------7------------------------8
    D--6p5-0---------8----------6p5-0---------7----------6p5---------8
    A-----------------6--------------------------5-----------------------6
    E----------3/5-5-----3/5-5----------3/5-5-----3/5-5--------3/5-5--


    G--------------------------5---7
    D---------6p5-0-----------5---7
    A--------------------------3---5
    E--3/5-5----------3/5-5-------




    That one slower part goes

    G--1-----------------
    D----1-1h2p1--1---1
    A--------------3--2--
    E---------------------

    G--4------------------
    D----4-4h5p4---4---4
    A--------------6---5--
    E----------------------
     
  7. labgnat

    labgnat Banned

    Oct 29, 2005
    outta this world
    ^^^^^
    that's pretty much how i play the main riff except instead of
    the a on the low e string played at the 5th fret i play an open d
    and i do the pull off 5h6po0
     
  8. Jonah

    Jonah Lord of the String

    Jan 19, 2007
    Vantaa, Finland
    Found this... looks like it has them bigass slides on e-string like I thought...



    -Jonah