1. Please take 30 seconds to register your free account to remove most ads, post topics, make friends, earn reward points at our store, and more!  
     
    TalkBass.com has been uniting the low end since 1998.  Join us! :)

Primus- Greet the Sacred Cow

Discussion in 'Tablature and Notation [BG]' started by Tupac, Mar 24, 2013.


  1. Tupac

    Tupac

    May 5, 2011
    Anyone have good tabs for this? I'm pretty sure this is half of it:

    Main bassline:

    x-------5-7---7-------x-------------5-7-
    ----------------------------------------
    --5-x-x---------5---x---5-----5-x-x-----
    ----------------------------------------

    Bridge:

    -------x-----------x-------------------x-----------x-
    ----------------------------------------------------
    ----------------------------------------------------
    0h1-x-----x-0h1-x-----x-0h1-2---0h1-x-----x-0h1-x---

    ----x-----x-------x-----------------x---x-------x---
    ----------------------0-----------------------------
    ----------------------------------------------------
    x-L---x-----0h1-x---x---2/3---0h1-x-------0h1-x---x-

    (damn talkbass screwing up the alignment)


    I can't for the life of me figure out how he plays the harmonic parts. I do know that he plays around the 5th fret though.
     
  2. sc58193

    sc58193

    Feb 24, 2011
    Eastern Shore, MD

Share This Page