Psst... Ready to join TalkBass and start posting, make new friends, sell your gear, and more?  Register your free account in 30 seconds.

Rage Against The Machine - Fistfull Of Steel

Discussion in 'Tablature and Notation [BG]' started by Roady, Feb 10, 2005.


  1. Corrections welcome, enjoy :)

    RIFF ONE

    G --||--------xx----------------
    D --||--------xx----------------
    A --||--------xx----------------
    E --||--5h7-7-xx-5h7-7--(14\)---

    RIFF TWO

    G --||---------------------------
    D --||---------------------------
    A --||-------00-2-3-------00-2-3-
    E --||--2/14--------22/14--------

    RIFF THREE

    G --||-------------
    D --||---75--------
    A --||-5---7-65----
    E --||---------8---

    RIFF FOUR

    G --||------------------------
    D --||------------------------
    A --||--------------------3---
    E --||--3h5p3-5-3-5-3-5-3---5-

    RIFF FIVE

    G --||-------------------------
    D --||--------------75---------
    A --||----------------7--65----
    E --||--3h5p3-5-3-5--------8---

    RIFF SIX

    G --||-----12-11-10-
    D --||--10----------
    A --||--------------
    E --||--------------

    RIFF SEVEN

    G --||------------
    D --||------------
    A --||------3-----
    E --||-3-5-x------

    RIFF EIGHT

    G --||-----
    D --||-----
    A --||-----
    E --||-3-5-


    Riff One x8
    Riff Two x7
    Riff Three x1
    Riff One x8
    Drum Break x1
    Riff Two x7
    Riff Three x1
    Riff One x8
    Riff Four x3
    Riff Five x1
    Riff Four x3
    Riff Five x1
    Riff Six x12
    Riff Seven x1 \____ x3
    Riff Six x1 /
    Riff Six x48 (!)
    Riff Seven x1 \____ x13
    Riff Six x1 /
    Riff Eight x1


    I had a bit of trouble with Riff 4, the solo riff, and thats the best I could do with it. It sounds right if you play it fast enough though ;)

    ~Roady
     
  2. al_25401

    al_25401

    Jan 9, 2005
    Australia
    Good, and all... but wheres the
    G|----------------------------------
    D|----------------------------------
    A|-------x--0----9-8-7-0--9-8-7-0--
    E|--0-2-----------------------------
    part?? Please forgive me i overlooked it.