1. Please take 30 seconds to register your free account to remove most ads, post topics, make friends, earn reward points at our store, and more!  
     
    TalkBass.com has been uniting the low end since 1998.  Join us! :)

Rage Against the Machine_ No Shelter

Discussion in 'Tablature and Notation [BG]' started by basslover24, Apr 2, 2009.


  1. Ive been trying to figure out this bass line but im convinced he's using a Delay pedal. So I need your help, is he using digital delay or do I just suck? lol

    Heres a link to the song
    http://www.youtube.com/watch?v=zX2ZwjSdVS4
     
  2. Jared Lash

    Jared Lash Born under punches Supporting Member

    Aug 21, 2006
    Northern California
    Yes, he's using a delay on this track.
     
  3. Bassmingo

    Bassmingo

    Nov 6, 2008
    Ireland
    yup, and an octaver later on too.
     
  4. the general

    the general

    Jul 8, 2008
  5. Broadbent

    Broadbent

    Mar 28, 2007
    Yes there is delay and octaver Set to harmonize -1 oct. The delay is like a slow slap back. only 1 repeat. I haven't made a full tab for this song but here is the parts of the song real quick to get you started

    Code:
    Notes in ( ) are not actually played but come from the delay pedal
    
    Intro/Chorus
    
    Delay on
    
    Octaver on
    
    -8/10---(8/10)---8/10-------
    ---------0-0----(0-0-)------
    ----------------------------
    ----------------------------
    
    pre chorus
    
    delay off 
    
    ----------------------------
    -------------13-13-13-13----
    -11-11-11-11----------------
    ----------------------------
    
    
    breakdown
    
    no delay
    
    
    -------------------------------10-10-----------------------------------------------
    -0-0-0-0-10-10---------0-0-0-0-------12-12-10-10-12-12-12-12-----------------------
    ---------------8-8-8-8---------------------------------------8-8-8-8-10-10-10-10---
    -----------------------------------------------------------------------------------
    
    
    Ending
    
    --------------------------
    ----------3---------------
    ---3--------5-3-5---------
    -0---3--0----------3-5----
    
     

Share This Page