1. Please take 30 seconds to register your free account to remove most ads, post topics, make friends, earn reward points at our store, and more!  

red hot chili peppers around the world

Discussion in 'Tablature and Notation [BG]' started by slapnpop, Feb 24, 2008.


  1. slapnpop

    slapnpop

    Aug 4, 2007
    theres probaly alrdy been a thread about this but wutever. i cant figure out the intro to this song so if anyone can tab it or give me the correct tab for it that would be great thanx.
     
  2. Jared Lash

    Jared Lash Born under punches

    Aug 21, 2006
    Denver, CO
    I don't have a bass handy, but if you're just talking about the distorted part at the beginning, it goes something like this:

    G-------------------------------------------------------
    D-------------------------------------------------------
    A------------------------------------------------------
    E---------------------0----------------------0--0--0--0-

    G-------------------------------------------------------
    D-12h14-14--12h14-14-12h14-14-12h14-12--------------
    A------------------------------------------14-13-12-10-
    E-------------------------------------------------------

    G------------------------------------------------------
    D-12h14-14--12h14-14-12h14-12-----------------------
    A----------------------------------14-13-12-10-------
    E------------------------------------------------12-10-

    With the second and third part repeated 4 (?) times total.

    Then a low G and a rest for the main guitar line before coming in for the verse.

    Something to note about the intro is that Flea initially rushes it on the record to start with and then slows down to the right tempo when the drums come in.
     

Share This Page

  1. This site uses cookies to help personalise content, tailor your experience and to keep you logged in if you register.
    By continuing to use this site, you are consenting to our use of cookies.