Psst... Ready to join TalkBass and start posting, make new friends, sell your gear, and more?  Register your free account in 30 seconds.

REQ: This will be a stretch: Snip Snap?

Discussion in 'Tablature and Notation [BG]' started by gandhirrea, Oct 30, 2005.


  1. I've been trying to tab this out myself, but i cant seem to get it just perfect.

    Snip Snap by Goblin (70's Italian prog band) off their CD Roller (one of their few non-soundtrack releases)

    I'm assuming a VERY small number of people on the boards have heard of this song (prolly even this band).

    If you haven't heard them, you owe it to yourself to listen to Roller, the soundtrack from the movie Suspiria, and the band that led to Goblin (IMO better than their later stuff, although less mature) Cherry Five (self-titled release)

    I'll post my tab in a second (and it needs MANY revisions/corrections).

    PS sounds like a fretless on this song.
     
  2. Code:
    Snip Snap by Goblin (this tab is an insult to all Goblin fans, I know)
    
                                                                         ? ?
    G------|-------------------------------------------------------------4/5-14--|
    D------|*-------------------------------------------------------------------*|Repeat
    A---7--|*-3--3-3/4-4-3/4-4/5-5-5/7-------3--3-3/4-4-3/4-4/5-5-5/7-----------*|Until:
    E------|---------------------------0------------------------------0----------|
    
    G-|----------------------------------------------|
    D-|----------------------------------------------|
    A-|-3/4-4/5-5-5/7-7---3--3-3/4-4/5-5--7-5--2-0---|
    E-|--------------------------------------------2-|
                         ? ? ?        G-(7/9)
    G-|---------------------------------(2/4)--|--7/9--------------------------
    D-|*--------------------------------(3/5)-*|-------------------------------
    A-|*----5-7-0h2-------------5-7-0h2--2/4--*|-------3-3/4-4-4--4/5-3/4-4/5--
    E-|--0----------3-5--2-4-0-----------------|-------------------------------
    
                           ******************WORK IN PROGRESS******************
    G-------------|---------|--------------------------------------------------
    D-------------|--Drums--|--------------------------------------------------
    A--7-5--2-0---|--Only---|--3--3-3/4-4-3/4-4/5------------------------------
    E-----------2-|---------|--------------------------------------------------
    
    G--6-9--2/4--|
    D------------|
    A------------|
    E------------|
    
    Timing not exact
    () = improved sometimes