1. Please take 30 seconds to register your free account to remove most ads, post topics, make friends, earn reward points at our store, and more!  

Return of Sathington Willouby

Discussion in 'Tablature and Notation [BG]' started by BassFTW, Jun 17, 2007.


  1. Primus--Brown Album, does anyone know it? Or a good tab site that has it
     
  2. measahorse

    measahorse

    Jun 17, 2007
    The Return of Sathington Willoughby
    -----------------------------------

    (Dropped D)

    Intro
    < ^ >
    G ||--x-x-x-x----||----x-x-x-x-x-x-x-----||
    D ||--x-x-x-x----||*---x-x-x-x-x-x-x-----||
    A ||--x-x-x-x--5-||*---x-x-x-x-x-x-x--4--||
    D ||-------------||----------------------||

    G ||--x-x-x-x-x-x-x-----||
    D ||--x-x-x-x-x-x-x----*||
    A ||--x-x-x-x-x-x-x--5-*||
    D ||--------------------||

    G ||----7p-5h----5--------5p-7h---7p----||
    D ||----------7p----5p-7h---------------||
    A ||------------------------------------||
    D ||--0-------------------------x----0--||

    2nd time only

    G ||----7p-5h----5--------5p-7h---10----||
    D ||----------7p----5p-7h---------------||
    A ||------------------------------------||
    D ||--0-------------------------x----0--||

    G ||--------------------------------||
    D ||*------------------------------*||
    A ||*----5-3h-0-3h-------3-5h---5--*||
    D ||---0------------5-7h------0-----||



    I found this on some site, not sure if it's right.
     
  3. Nope, nope.
    I've played that tab... Just doesn't do it for me.
    I recommend getting a 5 or 6 string to play it.... but I haven't found the correct tabs for a 6 string.
     
  4. Primary

    Primary TB Assistant

    Here are some related products that TB members are talking about. Clicking on a product will take you to TB’s partner, Primary, where you can find links to TB discussions about these products.

     
    Jan 19, 2021

Share This Page

  1. This site uses cookies to help personalise content, tailor your experience and to keep you logged in if you register.
    By continuing to use this site, you are consenting to our use of cookies.