1. Please take 30 seconds to register your free account to remove most ads, post topics, make friends, earn reward points at our store, and more!  

right place, wrong time

Discussion in 'Tablature and Notation [BG]' started by pcollin, Sep 18, 2008.


  1. pcollin

    pcollin

    Dec 22, 2005
    Portland, Maine
    I've hit a wall trying to figure out the bass line for Dr. John's "Right Place, Wrong Time". Can Anybody out there lend a hand or good tab? Thanks!
     
  2. dougjwray

    dougjwray

    Jul 20, 2005
    I believe I have a chart for it that I wrote out for myself years ago. It's in standard notation, though-- not tab. PM me if interested.
     
  3. poppamies

    poppamies

    Dec 15, 2002
    Right Place At The Wrong Time.btab
    Dr John
    TablEdited by Poppamies

    Tempo 104
    |--------------------------------|--------------------------------|
    |--------------------------------|--------------------------------|
    |6---6-------4---6---3---6---4-6-|6---6---3---6-------3-6-6---3-6-|
    |----------6-------6-------6-----|------4-----------4-------4-----|


    |--------------------------------|
    |--------------------------------|
    |6---6---3---6-------3---6---3-6-|
    |------4-----------4-------4-----|


    Created with TablEdit http://www.tabledit.com/
     

Share This Page

  1. This site uses cookies to help personalise content, tailor your experience and to keep you logged in if you register.
    By continuing to use this site, you are consenting to our use of cookies.