Psst... Ready to join TalkBass and start posting, make new friends, sell your gear, and more?  Register your free account in 30 seconds.

Robert Randolph and The Family Band "I need more love"

Discussion in 'Tablature and Notation [BG]' started by Nova, Jan 27, 2004.


  1. Nova

    Nova

    Apr 19, 2002
    Williamstown, WV
    Anyone got a tab for this?

    Any help with it is much appreciated.
     
  2. Nova

    Nova

    Apr 19, 2002
    Williamstown, WV
    bump

    Please people?
     
  3. rick1906

    rick1906

    Jun 6, 2002
    NC
    bump
     
  4. trebil

    trebil

    May 11, 2004
    ------9------9------------9------
    --------7-7/9--11/12-x9/11-11----
    -5-5/7---------------------------
    ---------------------------------


    ------9------7-9/11x-9-7-----
    --------7-7/9-----------9---- Transcribed by
    -5-5/7----------------------- Willy Styles
    ----------------------------- of FreakyDeeky.com