Psst... Ready to join TalkBass and start posting, make new friends, sell your gear, and more?  Register your free account in 30 seconds.

Sabbath's Iron Man-bass solo during guitar solo

Discussion in 'Tablature and Notation [BG]' started by Masterbasser71, Feb 20, 2004.


  1. :help: hey guys. I have learned iron man in its entirety, except for one part that absolutely ripped, Geezer's bass solo during Tony's guitar solo. If somebody could tab out the bass solo that would be awesome.
     
  2. HeavyDuty

    HeavyDuty Supporting Curmudgeon Staff Member Gold Supporting Member

    Jun 26, 2000
    Suburban Chicago, IL
    Moved to TaBz...
     
  3. dragonbass

    dragonbass Commercial User

    Feb 17, 2003
    N.Y.
    Owner/Builder of LoPrinzi Basses.........................................EX-Sadowsky Guitars Builder
    I've never written tab on the computer before....but here goes................

    Guitar Solo:

    A--------------------/---------------------/----------------
    E-9-9-9-9-9-9-9-7-8-/-9-9-9-9-9-9-9-7-8-/-9-9-9-0-14-16-


    G-------/------------------18---------/--------------------
    D-------/-----------------------------/---16-14------------
    A-14----/-16-16-16-16-16-----14-15-/-16-------16-14-----
    E----16-/----------------------------/------------------16-


    D--------/----------------/------------------/-------------9
    A--------/----------------/------------------/---7---7--11-
    E-14-12-/-14-12-9-7-9-0-/-9-9-9-9-9-9-7-8-/-9---9--------


    D-11-11-11-11-11-11-9-10/-11-9-10-11-9-10-11-9-/--------
    A-------------------------/------------------------/-11~9--
    E-------------------------/------------------------/--------


    A-7-9-7--------/------------------/------------------/-----
    E--------9-7-8-/-9-9-9-9-9-9-7-8-/-9-9-9-9-9-9-9-9-/-9-9-


    D---------------/-11-11-11-11-11-11-11-11-/-11-11-11-11-
    A------------11-/---------------------------/--------------
    E-9-9-9-9-9-----/---------------------------/--------------


    D-11-11-11-11-/-11-9-----------------------/-11-9---------
    A--------------/------11-10-9-7-------------/------11-10-9
    E--------------/-----------------9-7~9-7~9-/--------------


    A--7-------------/
    E----9-7~9-7~9-/ .........End of Solo...................


    D----------------------7-8-9-/
    A-------5-7-7-7-8-9-9-------/
    E-7-7-7----------------------/ .....Repeat 4 times...........


    Back to Verse.

    That's about it............Hope that helps!
     
  4. Not really to the actual topic, but The Cardigans do quite a nice cover version of "Iron Man"!
     
  5. Nick man

    Nick man

    Apr 7, 2002
    Tampa Bay
    Thanks man.

    I wasn't really looking for that before, but I stumbled across it and Im gonna bookmark it.

    Peace
    Nick