1. Please take 30 seconds to register your free account to remove most ads, post topics, make friends, earn reward points at our store, and more!  

Sade-Your love is King

Discussion in 'Tablature and Notation [BG]' started by Joaquin, Sep 14, 2008.


  1. Joaquin

    Joaquin

    Nov 4, 2006
    Does anyone know the bass line to your love is king by Sade?:hyper:
     
  2. poppamies

    poppamies

    Dec 15, 2002
    This is the main idea.


    Your Love Is King.btab
    Sade
    TablEdited by Poppamies

    tempo 90
    |--------------------------------|--------------------------------|
    |--------------------------------|--------------------------------|
    |--------------------------------|0-----------0-----------0-2-4---|
    |--------------------------------|--------------------------------|


    |--------------------------------|--------------------------------|
    |0-----------0-----------0-------|--------------------------------|
    |--------------------------4-2---|0-----------0-----------0-2-4---|
    |--------------------------------|--------------------------------|


    |--------------------------------|--------------------------------|
    |0-----------0-----------0-------|--------------------------------|
    |--------------------------4-2---|0-----------0-----------0-2-4---|
    |--------------------------------|--------------------------------|


    |--------------------------------|--------------------------------|
    |0-----------0-----------0-------|--------------------------------|
    |--------------------------4-2---|0-----------0-----------0-2-4---|
    |--------------------------------|--------------------------------|

    |
    |--------------------------------|--------------------------------|
    |0-----------0-------------------|--------------------------------|
    |----------------------------0---|0-----------0-----------0-2-4---|
    |------------------------0-2-----|--------------------------------|


    |--------------------------------|
    |0-----------0-----------0-------|
    |--------------------------4-2---|
    |--------------------------------|


    Created with TablEdit http://www.tabledit.com/
     
  3. LeeNunn

    LeeNunn Supporting Member

    Oct 9, 2012
    Charlottesville, VA
    The Smooth Operator thread inspired me to check out more of Sade. I realized I done this transcription a while back but never posted it.
     

    Attached Files:

    Seanmo and ChrisDev like this.

Share This Page

  1. This site uses cookies to help personalise content, tailor your experience and to keep you logged in if you register.
    By continuing to use this site, you are consenting to our use of cookies.