Psst... Ready to join TalkBass and start posting, make new friends, sell your gear, and more?  Register your free account in 30 seconds.

Share YOUR Tabs

Discussion in 'Tablature and Notation [BG]' started by ArcadeFire, Aug 28, 2005.


  1. If anybody has any tabs they'd like to share this is the place to put'em. Heres an ok one I made up, I'm not sure it's typed right but anyway.

    p=pull-off
    h=hammer on

    ----12p11--12p11--12p11----14--12------
    -------------------------------------12--
    ------------------------------------------
    ------------------------------------------
    X
    ----12--11--9-----14--12-- repeat 3 times
    ---------------12----------
    ---------------------------
    ---------------------------
    X
    -----------9/12---------9/12----------9--------9/12--
    ----9h10---------9h10----------9h10-----9h10--------
    ------------------------------------------------------
    ------------------------------------------------------
    X
    ----12------9--9-------------- repeat 3 times
    --------12--------12--10--9--9
    -------------------------------
    -------------------------------
    X
    -------------------- repeat 3 times
    --------------------
    ----------10--------
    ----8--8------8--7/3

    Tell me if you like it. Hope you enjoy. :)
     
  2. See the problem with tabs is theres no information on timing, so those tabs cab be played a million different ways... maybe post a recording alongside?
     
  3. I don't know how to post a recording.
     
  4. Yes that is a definite problem with tabs, but I am sure he knows what he is playing. He just used tabs as a way for him to remember, so it is hard to give tabs of your own original pieces to others without recordings.
     
  5. Bob Clayton

    Bob Clayton Moderator Staff Member Supporting Member

    Aug 14, 2001
    Deptford, NJ
    or atleast a time signature