1. Please take 30 seconds to register your free account to remove most ads, post topics, make friends, earn reward points at our store, and more!  
     
    TalkBass.com has been uniting the low end since 1998.  Join us! :)

Short Rock groove, need help!

Discussion in 'Tablature and Notation [BG]' started by CoarseBass, Apr 19, 2009.


  1. CoarseBass

    CoarseBass

    Dec 28, 2002
    I just can't make this one out, though it's simple, short, and something totally within my power...I just can't get it.

    I'm listening to the Dan Lutz riff 'Overdrive Rock' here: http://www.aguilaramp.com/tonehammer_settings.htm

    Can anyone give me a rough tab for this? Once I get the framework, I can make the rest happen. I think this is a fantastic riff.

    And it makes me want a Tone Hammer, so its good advertising. Are these really as good as they sound? I've got an OBP3 waiting to go in my Warwick, and I'm wondering if I just should have bought the pedal...
     
  2. BASE

    BASE

    Mar 27, 2006
    1st time
    G||-----------------------------|--------------------------|
    D||-----------------------------|--------------------------|
    A||-/12--12--12--8--8--8--8--6--|--6--6--6--6--3--3--5--3--|
    E||-----------------------------|--------------------------|

    3rd time
    ------------12---------7-----|--------------------------||
    -----------------------------|-----8--8--8--5--5--7--5--||
    --0--0--12------12--8-----8--|--8--6--6--6--3--3--5--3--||
    -----------------------------|--------------------------||
     

Share This Page