1. Please take 30 seconds to register your free account to post, make friends, earn reward points at our store, remove most ads and more!  
     
    TalkBass.com has been uniting the low end since 1998.  Join us! :)

someone can tabs this ? hot water music drag my body

Discussion in 'Tablature and Notation [BG]' started by nepee, Feb 17, 2013.


  1. nepee

    nepee

    Feb 23, 2010
    Montreal Canada

    I think the riff and the bass sound really cool ...
     
    catcauphonic likes this.
  2. nepee

    nepee

    Feb 23, 2010
    Montreal Canada


    need help at the fast damn fuack part somebody ?
    intro
    e-------------------------------------|
    d------------------------22----------|
    a--4-44---4-44---4-44----4242----|
    E-------0-------0------0------------|

    riff 1
    e--------------------------------------------------------|
    d-------------------------------------------------22----2-|
    a-4-44-4----------------2-22-0-2-22-0-2-22-2---424--|
    E--------5-55-5-0-00-0---------------------------------|

    riff2
    e-----------------------------------------------------|
    d--------------------------------------------22------|
    a-4-44-4--------------4-44-2-4-44-2-4-42--4242--|
    E-------5-55-5-0-00-0------------------------------|

    riff3 0:18
    e---------------------------------------6--------------|
    d-------------------------------------/7---------------|
    a-4-44-4-----------------4/7-4-2-0-------------------|
    E---------5-55-5-0-00-0------------------------9/0--|

    riff2
    e------------------------------------------------------|
    d----------------------------------------------22-------|
    a-4-44-4---------------4-44-2-4-44-2-4-442--4242--|
    E--------5-55-5-0-00-0-------------------------------|

    riff 4
    e--------------------------------------------------------|
    d-----------------------------------------------22---2--|
    a-4-44-4----------------2-22-0-2------2-22-2--424---|
    E---------5-55-5-0-00-0---------0/12/----------------|

    riff 2
    e--------------------------------------------------------|
    d------------------------------------------------22-------|
    a-4-44-4-----------------4-44-2-4-44-2-4-442--4242--|
    E---------5-55-5-0-00-0--------------------------------|

    riff 5 0:44
    e-----------------------------------6-----------------4-----|
    d---------------------------------/7--------------2h4------|
    a-4-44-4-----------------4/7420---------7642------------|
    E---------5-55-5-0-00-0-----------------------------------|

    Chorus 1 0:55
    e------------------------------------------------------|
    d------------------------------------------------------|
    a--4-4-4-4--------------------------------------------| 2 X
    E-----------7-7-5-5-5-454-0-0-0-040-7-7-7-474----|



    pre-riff 2 1:07
    e----------------------------------
    d---------------------------22-----
    a--4-44-2-4-44-2--4-44-2--4242-
    E-----------------------------------

    damn fu?ack?! :bawl::bag:
    e-------------------------------4-????????--|
    d----------------------------24-4242-2-----|
    a--4-44-2--4-44-2--4-44-2---------4-404-| ? Help me please
    E--------------------------------------------|

    riff 2 1:14
    e---------------------------------------------------------|
    d-----------------------------------------------22-------|
    a-4-44-4----------------4-44-2-4-44-2-4-442--4242--|
    E---------5-55-5-0-00-0--------------------------------|

    riff 4
    e--------------------------------------------------------|
    d-----------------------------------------------22---2--|
    a-4-44-4----------------2-22-0-2------2-22-2--424---|
    E---------5-55-5-0-00-0----------0/12-----------------|

    riff 2
    e---------------------------------------------------------|
    d------------------------------------------------22------|
    a-4-44-4-----------------4-44-2-4-44-2-4-442--4242--|
    E---------5-55-5-0-00-0---------------------------------|

    riff 5 1:32
    e----------------------------------6----------------4-----|
    d--------------------------------/7--------------2h4-----|
    a-4-44-4-----------------4/7420---------7642----------|
    E---------5-55-5-0-00-0---------------------------------|

    Chorus 1 1:43
    e--------------------------------------------------|
    d--------------------------------------------------|
    a--4-4-4-4-----------------------------------------| 2 X
    E--------7-7-5-5-5-454-0-0-0-040-7-7-7-474----|

    Chorus 2 1:56
    e--------------------------------------------|
    d---------467-7-7-767--------6-9-9-9-76--|
    a--4-4-4--------------7-7-7-7-7----------7-|
    E--------7------------------------------------|

    Chorus 3 2:03
    e--------------------------------9--9h11------------------|
    d---------467-7-7-767----9h11-11-----9-11-9-11/13---|
    a--4-4-4---------------7-7-------------------------------|
    E--------7-----------------------------------------------|


    !punch 2:10
    e---------------9--9h11------------------------------|
    d----------9h11-11-------------11-9-11/13-11-9----|
    a-0!-0!-0!---------------------------------------------|
    E------------------------7!-7!-7!----------------------|

    e-----------14-----9--9-11-----------------------------|
    d-----------14--11-11-------------/7-6---7-6----------|
    a-0!-0!-0!-12------------------------7-----7----------|
    E--------------------------7!-7!-7!--------------------|

    2:24
    e-----------------------------------------------------------------------------------|
    d----------------------------------------------------------------------------9999--|
    a-0!-0!-0!-00000000---------------------0!-0!-0!-0000--------------------------|
    E---------------------7!-7!-7!-77777777----------------4444-7!-7!-7!7777------|

    Chorus 1 2:37
    e--------------------------------------------------|
    d---------------------------------------------------|
    a--4-4-4-4-----------------------------------------| 2 X
    E--------7-7-5-5-5-454-0-0-0-040-7-7-7-474----|

    Chorus 2 2:51
    e----------------------------------------------|
    d---------467-7-7-767---------6-9-9-9-76--|
    a--4-4-4---------------7-7-7-7-7----------7-|
    E--------7-------------------------------------|

    Chorus 3
    e--------------------------------9--9h11-------------------|
    d---------467-7-7-767----9h11-11-----9-9-11-9-11/13---|
    a--4-4-4---------------7-7---------------------------------|
    E--------7--------------------------------------------------|

    !punch
    e------------------------|
    d------------------------|
    a-0!-0!-0!---------------|
    E----------4-7!-7!-7!-0--|

    60%
     
  3. slapslappopslap

    slapslappopslap

    Nov 22, 2006
    NZ
    Hey dude, I get lessons from Jason, and I asked him to check my tab. I have it as a PDF, but's it's too big to send on here, so PM me your email address if you want it.
     
  4. Nihilism

    Nihilism

    Dec 27, 2011
  5. alexvf

    alexvf

    Dec 4, 2014
  6. wrongboy

    wrongboy

    Jun 10, 2016
    Chicago
    Raising an old topic from the dead. Is this tab still out there somewhere? PM me? Thanks!
     
    catcauphonic likes this.
  7. I tried PMing for the tab back in October. I never got a response, so I worked through the song using some existing tabs, youtube covers and my ears. It isn't perfect. But, I think it sounds more accurate than the tabs and youtube covers that I've seen. At the very least, I don't hear any sour notes. Which I don't think can be said for the previous tab posted. This is how I play it:

    Drag My Body-Hot Water Music

    Pre-riff
    G-------------------------------------------------------|
    D-----------------------------------------------22------|
    A---------------------4--4-2--4--4-2--4--4-2---2242-|
    E--------------------------------------------------------|

    Riff 1
    G-------------------------------------------------------------|
    D----------------------------------------------------22--24--|
    A-4--4-4------------------2--2-0--2--2-0--2--2-2---22----|
    E---------5--5-5--0--0-0------------------------------------|

    Riff 2
    G--------------------------------------------------------------|
    D----------------------------------------------------22-------|
    A-4--4-4------------------4--4-2--4--4-2--4--4-2---2242--|
    E---------5--5-5--0--0-0-------------------------------------|

    Riff 3 0:18
    G----------------------------------2/6-----|
    D---------------------------------------7---|
    A-4--4-4---------------467-4--------------|
    E---------5--5-5--0--0-------7--5---------|

    Riff 2
    G--------------------------------------------------------------|
    D----------------------------------------------------22-------|
    A-4--4-4------------------4--4-2--4--4-2--4--4-2---2242--|
    E---------5--5-5--0--0-0-------------------------------------|

    Riff 1
    G-------------------------------------------------------------|
    D----------------------------------------------------22--24--|
    A-4--4-4------------------2--2-0--2--2-0--2--2-2---22----|
    E---------5--5-5--0--0-0------------------------------------|

    Riff 2
    G--------------------------------------------------------------|
    D----------------------------------------------------22-------|
    A-4--4-4------------------4--4-2--4--4-2--4--4-2---2242--|
    E---------5--5-5--0--0-0-------------------------------------|

    Riff 4 0:44
    G-----------------------------------2/6----------------4-|
    D--------------------------------------------------2h4---|
    A-4--4-4---------------467-4-----------7-6-4-2--------|
    E---------5--5-5--0--0-------7--5-----------------------|

    Chorus 1 0:55
    G------------------------------------------------------------|
    D------------------------------------------------------------|
    A-4--4--4-242-------------------------------2--2--2--2---| 2X
    E----------------5--5--5-575--0--0--0-040----------4-4--|

    Pre-riff 2 1:07
    G-------------------------------------|
    D---------------------------22-------|
    A-4--4-2--4--4-2--4--4-2---2242--|
    E--------------------------------------|

    Pre-riff with fast fill
    G----------------------2-4h2------------------|
    D------------------2h4-4---4h2---2-4h2-----|
    A-4--4-2--4--4-2--------------2h4-4---4h2--|
    E-----------------------------------------------|

    Riff 2
    G--------------------------------------------------------------|
    D----------------------------------------------------22-------|
    A-4--4-4------------------4--4-2--4--4-2--4--4-2---2242--|
    E---------5--5-5--0--0-0-------------------------------------|

    Riff 1
    G-------------------------------------------------------------|
    D----------------------------------------------------22--24--|
    A-4--4-4------------------2--2-0--2--2-0--2--2-2---22----|
    E---------5--5-5--0--0-0------------------------------------|

    Riff 2
    G--------------------------------------------------------------|
    D----------------------------------------------------22-------|
    A-4--4-4------------------4--4-2--4--4-2--4--4-2---2242--|
    E---------5--5-5--0--0-0-------------------------------------|

    Riff 4 0:44
    G----------------------------------2/6----------------4--|
    D--------------------------------------------------2h4---|
    A-4--4-4---------------467-4-----------7-6-4-2--------|
    E---------5--5-5--0--0-------7--5-----------------------|

    Chorus 1 0:55
    G-------------------------------------------------------------|
    D-------------------------------------------------------------|
    A-4--4--4-242--------------------------------2--2--2--2---| 2X
    E----------------5--5--5-575--0--0--0-040-----------4-4--|

    Chorus 2 1:56
    G------------------------------------------4--4--4------|
    D-----------46-7--7--7-767-----------6----------76---|
    A-4--4--4--------------------7--7--7-7-7-----------7--|
    E----------7---------------------------------------------|

    Chorus 3 2:03
    G----------------------------------------9--9h11-----------------|
    D-----------46-7--7--7-767------9h11-11-----9-11-9-11/13--|
    A-4--4--4--------------------7--7--------------------------------|
    E----------7-------------------------------------------------------|

    Bridge 2:10
    G----------------9--9h11-------------------------------|
    D----------9h11-11----------------11-9-11/13-11-9--|
    A---------------------------------------------------------|
    E-5--5--5-----------------7--7--7-----------------------|

    G-----------14---11--11-13--------------------------|
    D-----------14-----13------------------7-6---7-6----|
    A-----------12-------------------------------7--------|
    E-5--5--5---------------------7--7--7-------------7--|

    2:24
    G------------------------------------------------------------------------------------------------------|
    D-----------------------------------------------------------------------------------------99999999--|
    A-------------------------------------------------------------------------------------------------------|
    E-5--5--5-5555555555--7--7--7-7777777777--5--5--5-5555554444--7--7--7-77--------------|

    Chorus 1 2:37
    G------------------------------------------------------------|
    D------------------------------------------------------------|
    A-4--4--4-242-------------------------------2--2--2--2---| 2X
    E---------------5--5--5-575--0--0--0-040----------4-4---|

    Chorus 2 2:51
    G-------------------------------------------4--4--4------|
    D-----------46-7--7--7-767-----------6-----------76---|
    A-4--4--4--------------------7--7--7-7-7-------------7--|
    E----------7-----------------------------------------------|

    Chorus 3
    G-----------------------------------------9--9h11------------------|
    D-----------46-7--7--7-767-------9h11-11------9-11-9-11/13--|
    A-4--4--4--------------------7--7----------------------------------|
    E----------7---------------------------------------------------------|

    Ending
    G-------------------------------|
    D-------------------------------|
    A-------------------------------|
    E-5-5-5----4---7-7-7------0--|


    /=Slide
    h=Hammer
     
    Last edited: Feb 11, 2017