Psst... Ready to join TalkBass and start posting, make new friends, sell your gear, and more?  Register your free account in 30 seconds.

suggest good tabs

Discussion in 'Tablature and Notation [BG]' started by wwbasser, Oct 26, 2002.


  1. does anyone got tabs they suggest learning?:D
     
  2. Hategear

    Hategear Workin' hard at hardly workin'.

    Apr 6, 2001
    Appleton, Swissconsin
    Woo-hoo! A newbie that posted a Tab request in the correct forum! ;)

    What kind of music are you into? Are you looking for hard, easy or middle-of-the-road songs?
     
  3. Try this out.

    7/4

    ---4------------------------------
    -----4---------0------------------
    -2-----2---0-2-------------------- REPEAT
    ---------2------------------------

    Part 2:
    ---------------------------------------
    4-4-4---------4-3-2-----------0--------
    ------4---0-4-------2-----0-2----------
    --------2-------------0-3--------------
     
  4. Damn it! I was just about to suggest that!

    It's one of my favourite songs to play.
    Also try Black Dog by Led Zep.
    Some people say it's hard. I found it really easy so it's just what you're suited to I suppose

    cheers
     
  5. im lookin for some new creative tabs plus ive been teyin to find bowling for soup's girl all the bad guys want:D
     
  6. just_a_poser

    just_a_poser

    Apr 20, 2002