1. Please take 30 seconds to register your free account to remove most ads, post topics, make friends, earn reward points at our store, and more!  

Sundown

Discussion in 'Tablature and Notation [BG]' started by ReitaRocksBass, Sep 6, 2008.


  1. ReitaRocksBass

    ReitaRocksBass

    Apr 6, 2008
    Virginia
    Hi does anyone know the bass tab for sundown by gordon lightfoot? i cant find it anywhere... Thanks.
     
  2. poppamies

    poppamies

    Dec 15, 2002
    Sundown.btab
    Gordon Lightfoot
    TablEdited by Poppamies

    tempo 104
    |--------------------------------|--------------------------------|
    |--------------------------------|------------------------2---3---|
    |--------------------------------|--------------------4-----------|
    |--------------------------------|--------------------------------|


    |--------------------------------|--------------------------------|
    |4-----------4-----------2---3---|4-----------4-----------4---2---|
    |----------------4---4-----------|----------------4---4-----------|
    |--------------------------------|--------------------------------|


    |--------------------------------|--------------------------------|
    |4-----------4-----------2---3---|4-----------4---------------2---|
    |----------------4---4-----------|----------------4---4---2-------|
    |--------------------------------|--------------------------------|


    |--------------------------------|--------------------------------|
    |4-----------4-----------2---3---|4-----------4---------------2---|
    |----------------4---4-----------|----------------4---4-----------|
    |--------------------------------|--------------------------------|


    |--------------------------------|--------------------------------|
    |4-----------4---4-------4---2---|4-----------4---4---------------|
    |--------------------4-----------|--------------------4-------2---|
    |--------------------------------|--------------------------------|


    |------------------------6-------|--------------------------------|
    |----------------------------4---|------------------------2---3---|
    |4-----------4---4---4-----------|--------------------4-----------|
    |--------------------------------|2-----------2---2---------------|


    |--------------------------------|--------------------------------|
    |4-----------4-------------------|----------------------------1---|
    |----------------4---------------|2-----------2---2---2---2-------|
    |------------------------1/--3---|--------------------------------|


    |--------------------------------|--------------------------------|
    |2-----------2---2-----------4---|4---4-------4---4-------2---3---|
    |--------------------2---2-------|--------------------4-----------|
    |--------------------------------|--------------------------------|


    |--------------------------------|--------------------------------|
    |4-----------4---4-------4---2---|--------------------------------|
    |--------------------4-----------|2-----------2---2-------2---2---|
    |--------------------------------|--------------------------------|


    |--------------------------------|--------------------------------|
    |2-----------2---2-------2---3---|4-----------4---4-------2---4---|
    |--------------------2-----------|----4---------------4-----------|
    |--------------------------------|--------------------------------|


    |--------------------------------|--------------------------------|
    |4-----------4---4-------2-------|4-----------4---4-----------2---|
    |----------------------------4---|--------------------4---4-------|
    |--------------------------------|--------------------------------|


    |--------------------------------|
    |4-----------4---4-------4-------|
    |--------------------------------|
    |--------------------------------|


    Created with TablEdit http://www.tabledit.com/
     
  3. ReitaRocksBass

    ReitaRocksBass

    Apr 6, 2008
    Virginia
    Hey thanks!
     

Share This Page

  1. This site uses cookies to help personalise content, tailor your experience and to keep you logged in if you register.
    By continuing to use this site, you are consenting to our use of cookies.