1. Please take 30 seconds to register your free account to remove most ads, post topics, make friends, earn reward points at our store, and more!  

Tab Critique: Heavy Music Seger

Discussion in 'Tablature and Notation [BG]' started by skypn, Nov 17, 2016.


Tags:
  1. skypn

    skypn

    Feb 8, 2011
    Ok, this is kinda my first post of a tab I did. Thanks to HandsFree for the help on the chorus. I only have the intro, first verse and chorus so far. He seems to be doing doing something different every time. I ask for your opinons, and any criticism you have to offer. TIA


    Heavy Music
    Bob Seger and the Last Heard
    Tabbed by: Skyp Nelson


    G|---------------------------------------9-7---7-9----------|
    D|-------------------------------------------9----------------|
    A|-7-5-7-5-7-5-7-5-7-5-7-5-7-----------------------------|
    E|-------------------------------------------------------------|

    G|-------------------------------------------------------------|
    D|-------------------------------------------------------------|
    A|-7-5-7-5-7-5-7-5-7-5-7-5-7-----------------55-6--------|
    E|---------------------------------------77--------------------|

    G|-------------------------------------------------------------|
    D|-------------------------------------------------------------|
    A|-7-5-7-5-7-5-7-5-7-5-7-5-7---------------5-6-----------|
    E|---------------------------------------7---------------------|

    G|------------------------------------------7-9-7--------------|
    D|----------------------------------------9--------9-----------|
    A|-7-5-7-5-7-5-7-5-7-5-7-5-7------------------------------|
    E|-------------------------------------------------------------|

    G|---------------------------------------------------------------|
    D|---------------------------------------5---5------------------|
    A|-7-5-7-5-7-5-7-5-7-5-7-5-7------------7--7--------------|
    E|---------------------------------------------------------------|

    G|----------------------------------------5---5--7-------------|
    D|------------------------------------------7-------------------|
    A|-7-5-7-5-7-5-7-5-7-5-7-5-7-------------------------------|
    E|---------------------------------------------------------------|

    CHOURS
    G|-------------------------------------------------------------|
    D|-------------------------------------------------------------|
    A|-3--------5---------6-------7------------------------------|
    E|-------------------------------------------------------------|
    ride ride ride ride
    G|-----------------------------------------5-7-----------------|
    D|-------------------------------------5h7---------------------|
    A|-7-5-7-5-7-5-7-5-7-5-7-5-7-------------------------------|
    E|---------------------------------------------------------------|

    G|-------------------------------------------------------------|
    D|-------------------------------------------------------------|
    A|-7-5-7-5-7-5-7-5-7-5-7-5-7----------------77-7--------|
    E|-------------------------------------------------------------|

    Sorry if the format a little shaky, it didn't want to paste well from Word.
     
  2. Primary

    Primary TB Assistant

    Here are some related products that TB members are talking about. Clicking on a product will take you to TB’s partner, Primary, where you can find links to TB discussions about these products.

     
    Apr 18, 2021

Share This Page

  1. This site uses cookies to help personalise content, tailor your experience and to keep you logged in if you register.
    By continuing to use this site, you are consenting to our use of cookies.